ISO-10303-21;
HEADER;
FILE_DESCRIPTION(('STEP AP214'),'1');
FILE_NAME('C:/PartsXMLTools/RobotParts/Generated/STEP_SAT/CAD/Temp/1827_10_00.stp','2016-07-07T14:25:08',('TraceParts'),('TraceParts S.A.'),'Spatial InterOp 3D',' ',' ');
FILE_SCHEMA(('automotive_design'));
ENDSEC;
DATA;
#1=PRODUCT_DEFINITION_CONTEXT('',#9,'design');
#2=APPLICATION_PROTOCOL_DEFINITION('INTERNATIONAL STANDARD','automotive_design',1994,#9);
#3=PRODUCT_CATEGORY_RELATIONSHIP('NONE','NONE',#10,#11);
#4=SHAPE_DEFINITION_REPRESENTATION(#12,#13);
#5= (GEOMETRIC_REPRESENTATION_CONTEXT(3)GLOBAL_UNCERTAINTY_ASSIGNED_CONTEXT((#16))GLOBAL_UNIT_ASSIGNED_CONTEXT((#18,#19,#20))REPRESENTATION_CONTEXT('NONE','WORKSPACE'));
#9=APPLICATION_CONTEXT(' ');
#10=PRODUCT_CATEGORY('part','NONE');
#11=PRODUCT_RELATED_PRODUCT_CATEGORY('detail',' ',(#22));
#12=PRODUCT_DEFINITION_SHAPE('NONE','NONE',#23);
#13=ADVANCED_BREP_SHAPE_REPRESENTATION('1827-10-00',(#24,#25),#5);
#16=UNCERTAINTY_MEASURE_WITH_UNIT(LENGTH_MEASURE(1.0E-006),#18,'','');
#18= (CONVERSION_BASED_UNIT('MILLIMETRE',#28)LENGTH_UNIT()NAMED_UNIT(#31));
#19= (NAMED_UNIT(#33)PLANE_ANGLE_UNIT()SI_UNIT($,.RADIAN.));
#20= (NAMED_UNIT(#33)SOLID_ANGLE_UNIT()SI_UNIT($,.STERADIAN.));
#22=PRODUCT('1827-10-00','1827-10-00','PART-1827-10-00-DESC',(#39));
#23=PRODUCT_DEFINITION('NONE','NONE',#40,#1);
#24=MANIFOLD_SOLID_BREP('1827-10-00',#41);
#25=AXIS2_PLACEMENT_3D('',#42,#43,#44);
#28=LENGTH_MEASURE_WITH_UNIT(LENGTH_MEASURE(1.0),#45);
#31=DIMENSIONAL_EXPONENTS(1.0,0.0,0.0,0.0,0.0,0.0,0.0);
#33=DIMENSIONAL_EXPONENTS(0.0,0.0,0.0,0.0,0.0,0.0,0.0);
#39=PRODUCT_CONTEXT('',#9,'mechanical');
#40=PRODUCT_DEFINITION_FORMATION_WITH_SPECIFIED_SOURCE(' ','NONE',#22,.NOT_KNOWN.);
#41=CLOSED_SHELL('',(#46,#47,#48,#49,#50,#51,#52,#53,#54,#55,#56,#57,#58));
#42=CARTESIAN_POINT('',(0.0,0.0,0.0));
#43=DIRECTION('',(0.0,0.0,1.0));
#44=DIRECTION('',(1.0,0.0,0.0));
#45= (NAMED_UNIT(#31)LENGTH_UNIT()SI_UNIT(.MILLI.,.METRE.));
#46=ADVANCED_FACE('',(#60),#61,.T.);
#47=ADVANCED_FACE('',(#62),#63,.T.);
#48=ADVANCED_FACE('',(#64),#65,.F.);
#49=ADVANCED_FACE('',(#66),#67,.F.);
#50=ADVANCED_FACE('',(#68),#69,.F.);
#51=ADVANCED_FACE('',(#70),#71,.F.);
#52=ADVANCED_FACE('',(#72,#73),#74,.T.);
#53=ADVANCED_FACE('',(#75),#76,.T.);
#54=ADVANCED_FACE('',(#77),#78,.T.);
#55=ADVANCED_FACE('',(#79),#80,.T.);
#56=ADVANCED_FACE('',(#81),#82,.T.);
#57=ADVANCED_FACE('',(#83),#84,.T.);
#58=ADVANCED_FACE('',(#85),#86,.T.);
#60=FACE_OUTER_BOUND('',#87,.T.);
#61=CONICAL_SURFACE('',#88,4.643933982822,0.7853981633973);
#62=FACE_OUTER_BOUND('',#89,.T.);
#63=CONICAL_SURFACE('',#90,4.643933982822,0.7853981633973);
#64=FACE_OUTER_BOUND('',#91,.T.);
#65=CONICAL_SURFACE('',#92,4.118933982822,0.7853981633973);
#66=FACE_OUTER_BOUND('',#93,.T.);
#67=CONICAL_SURFACE('',#94,4.118933982822,0.7853981633973);
#68=FACE_OUTER_BOUND('',#95,.T.);
#69=CYLINDRICAL_SURFACE('',#96,3.7);
#70=FACE_OUTER_BOUND('',#97,.T.);
#71=CYLINDRICAL_SURFACE('',#98,3.7);
#72=FACE_OUTER_BOUND('',#99,.T.);
#73=FACE_BOUND('',#100,.T.);
#74=PLANE('',#101);
#75=FACE_OUTER_BOUND('',#102,.T.);
#76=TOROIDAL_SURFACE('',#103,3.8,0.2);
#77=FACE_OUTER_BOUND('',#104,.T.);
#78=CYLINDRICAL_SURFACE('',#105,4.0);
#79=FACE_OUTER_BOUND('',#106,.T.);
#80=CYLINDRICAL_SURFACE('',#107,4.0);
#81=FACE_OUTER_BOUND('',#108,.T.);
#82=CONICAL_SURFACE('',#109,4.375,0.7853981633973);
#83=FACE_OUTER_BOUND('',#110,.T.);
#84=CONICAL_SURFACE('',#111,4.375,0.7853981633973);
#85=FACE_OUTER_BOUND('',#112,.T.);
#86=TOROIDAL_SURFACE('',#113,3.8,0.2);
#87=EDGE_LOOP('',(#114,#115,#116,#117));
#88=AXIS2_PLACEMENT_3D('',#118,#119,#120);
#89=EDGE_LOOP('',(#121,#122,#123,#124));
#90=AXIS2_PLACEMENT_3D('',#125,#126,#127);
#91=EDGE_LOOP('',(#128,#129,#130,#131));
#92=AXIS2_PLACEMENT_3D('',#132,#133,#134);
#93=EDGE_LOOP('',(#135,#136,#137,#138));
#94=AXIS2_PLACEMENT_3D('',#139,#140,#141);
#95=EDGE_LOOP('',(#142,#143,#144,#145));
#96=AXIS2_PLACEMENT_3D('',#146,#147,#148);
#97=EDGE_LOOP('',(#149,#150,#151,#152));
#98=AXIS2_PLACEMENT_3D('',#153,#154,#155);
#99=EDGE_LOOP('',(#156,#157));
#100=EDGE_LOOP('',(#158,#159));
#101=AXIS2_PLACEMENT_3D('',#160,#161,#162);
#102=EDGE_LOOP('',(#163,#164,#165,#166));
#103=AXIS2_PLACEMENT_3D('',#167,#168,#169);
#104=EDGE_LOOP('',(#170,#171,#172,#173));
#105=AXIS2_PLACEMENT_3D('',#174,#175,#176);
#106=EDGE_LOOP('',(#177,#178,#179,#180));
#107=AXIS2_PLACEMENT_3D('',#181,#182,#183);
#108=EDGE_LOOP('',(#184,#185,#186,#187));
#109=AXIS2_PLACEMENT_3D('',#188,#189,#190);
#110=EDGE_LOOP('',(#191,#192,#193,#194));
#111=AXIS2_PLACEMENT_3D('',#195,#196,#197);
#112=EDGE_LOOP('',(#198,#199,#200,#201));
#113=AXIS2_PLACEMENT_3D('',#202,#203,#204);
#114=ORIENTED_EDGE('',*,*,#205,.T.);
#115=ORIENTED_EDGE('',*,*,#206,.F.);
#116=ORIENTED_EDGE('',*,*,#207,.F.);
#117=ORIENTED_EDGE('',*,*,#208,.T.);
#118=CARTESIAN_POINT('',(-0.106066017178,0.0,0.0));
#119=DIRECTION('',(1.0,0.0,-0.0));
#120=DIRECTION('',(0.0,-1.0,0.0));
#121=ORIENTED_EDGE('',*,*,#209,.T.);
#122=ORIENTED_EDGE('',*,*,#206,.T.);
#123=ORIENTED_EDGE('',*,*,#210,.F.);
#124=ORIENTED_EDGE('',*,*,#208,.F.);
#125=CARTESIAN_POINT('',(-0.106066017178,0.0,0.0));
#126=DIRECTION('',(1.0,0.0,-0.0));
#127=DIRECTION('',(0.0,-1.0,0.0));
#128=ORIENTED_EDGE('',*,*,#210,.T.);
#129=ORIENTED_EDGE('',*,*,#211,.T.);
#130=ORIENTED_EDGE('',*,*,#212,.F.);
#131=ORIENTED_EDGE('',*,*,#213,.F.);
#132=CARTESIAN_POINT('',(0.2068019484661,0.0,0.0));
#133=DIRECTION('',(-1.0,0.0,-0.0));
#134=DIRECTION('',(0.0,1.0,0.0));
#135=ORIENTED_EDGE('',*,*,#214,.T.);
#136=ORIENTED_EDGE('',*,*,#211,.F.);
#137=ORIENTED_EDGE('',*,*,#205,.F.);
#138=ORIENTED_EDGE('',*,*,#213,.T.);
#139=CARTESIAN_POINT('',(0.2068019484661,0.0,0.0));
#140=DIRECTION('',(-1.0,0.0,-0.0));
#141=DIRECTION('',(0.0,1.0,0.0));
#142=ORIENTED_EDGE('',*,*,#215,.T.);
#143=ORIENTED_EDGE('',*,*,#216,.F.);
#144=ORIENTED_EDGE('',*,*,#214,.F.);
#145=ORIENTED_EDGE('',*,*,#217,.T.);
#146=CARTESIAN_POINT('',(-1.112132034356,0.0,0.0));
#147=DIRECTION('',(-1.0,-0.0,0.0));
#148=DIRECTION('',(0.0,-1.0,0.0));
#149=ORIENTED_EDGE('',*,*,#212,.T.);
#150=ORIENTED_EDGE('',*,*,#216,.T.);
#151=ORIENTED_EDGE('',*,*,#218,.F.);
#152=ORIENTED_EDGE('',*,*,#217,.F.);
#153=CARTESIAN_POINT('',(-1.112132034356,0.0,0.0));
#154=DIRECTION('',(-1.0,-0.0,0.0));
#155=DIRECTION('',(0.0,-1.0,0.0));
#156=ORIENTED_EDGE('',*,*,#219,.F.);
#157=ORIENTED_EDGE('',*,*,#220,.T.);
#158=ORIENTED_EDGE('',*,*,#215,.F.);
#159=ORIENTED_EDGE('',*,*,#218,.T.);
#160=CARTESIAN_POINT('',(17.78786796564,0.0,0.0));
#161=DIRECTION('',(1.0,0.0,0.0));
#162=DIRECTION('',(0.0,1.0,-0.0));
#163=ORIENTED_EDGE('',*,*,#221,.T.);
#164=ORIENTED_EDGE('',*,*,#220,.F.);
#165=ORIENTED_EDGE('',*,*,#222,.F.);
#166=ORIENTED_EDGE('',*,*,#223,.T.);
#167=CARTESIAN_POINT('',(17.58786796564,0.0,0.0));
#168=DIRECTION('',(1.0,0.0,0.0));
#169=DIRECTION('',(0.0,-1.0,0.0));
#170=ORIENTED_EDGE('',*,*,#224,.T.);
#171=ORIENTED_EDGE('',*,*,#225,.F.);
#172=ORIENTED_EDGE('',*,*,#223,.F.);
#173=ORIENTED_EDGE('',*,*,#226,.T.);
#174=CARTESIAN_POINT('',(-1.112132034356,0.0,0.0));
#175=DIRECTION('',(-1.0,-0.0,0.0));
#176=DIRECTION('',(0.0,-1.0,0.0));
#177=ORIENTED_EDGE('',*,*,#227,.T.);
#178=ORIENTED_EDGE('',*,*,#225,.T.);
#179=ORIENTED_EDGE('',*,*,#228,.F.);
#180=ORIENTED_EDGE('',*,*,#226,.F.);
#181=CARTESIAN_POINT('',(-1.112132034356,0.0,0.0));
#182=DIRECTION('',(-1.0,-0.0,0.0));
#183=DIRECTION('',(0.0,-1.0,0.0));
#184=ORIENTED_EDGE('',*,*,#228,.T.);
#185=ORIENTED_EDGE('',*,*,#229,.T.);
#186=ORIENTED_EDGE('',*,*,#209,.F.);
#187=ORIENTED_EDGE('',*,*,#230,.F.);
#188=CARTESIAN_POINT('',(0.375,0.0,0.0));
#189=DIRECTION('',(-1.0,0.0,-0.0));
#190=DIRECTION('',(0.0,1.0,0.0));
#191=ORIENTED_EDGE('',*,*,#207,.T.);
#192=ORIENTED_EDGE('',*,*,#229,.F.);
#193=ORIENTED_EDGE('',*,*,#224,.F.);
#194=ORIENTED_EDGE('',*,*,#230,.T.);
#195=CARTESIAN_POINT('',(0.375,0.0,0.0));
#196=DIRECTION('',(-1.0,0.0,-0.0));
#197=DIRECTION('',(0.0,1.0,0.0));
#198=ORIENTED_EDGE('',*,*,#222,.T.);
#199=ORIENTED_EDGE('',*,*,#219,.T.);
#200=ORIENTED_EDGE('',*,*,#221,.F.);
#201=ORIENTED_EDGE('',*,*,#227,.F.);
#202=CARTESIAN_POINT('',(17.58786796564,0.0,0.0));
#203=DIRECTION('',(1.0,0.0,0.0));
#204=DIRECTION('',(0.0,-1.0,0.0));
#205=EDGE_CURVE('',#231,#232,#233,.T.);
#206=EDGE_CURVE('',#234,#232,#235,.T.);
#207=EDGE_CURVE('',#236,#234,#237,.T.);
#208=EDGE_CURVE('',#236,#231,#238,.T.);
#209=EDGE_CURVE('',#236,#234,#239,.T.);
#210=EDGE_CURVE('',#231,#232,#240,.T.);
#211=EDGE_CURVE('',#232,#241,#242,.T.);
#212=EDGE_CURVE('',#243,#241,#244,.T.);
#213=EDGE_CURVE('',#231,#243,#245,.T.);
#214=EDGE_CURVE('',#243,#241,#246,.T.);
#215=EDGE_CURVE('',#247,#248,#249,.T.);
#216=EDGE_CURVE('',#241,#248,#250,.T.);
#217=EDGE_CURVE('',#243,#247,#251,.T.);
#218=EDGE_CURVE('',#247,#248,#252,.T.);
#219=EDGE_CURVE('',#253,#254,#255,.T.);
#220=EDGE_CURVE('',#253,#254,#256,.T.);
#221=EDGE_CURVE('',#257,#254,#258,.T.);
#222=EDGE_CURVE('',#259,#253,#260,.T.);
#223=EDGE_CURVE('',#259,#257,#261,.T.);
#224=EDGE_CURVE('',#262,#263,#264,.T.);
#225=EDGE_CURVE('',#257,#263,#265,.T.);
#226=EDGE_CURVE('',#259,#262,#266,.T.);
#227=EDGE_CURVE('',#259,#257,#267,.T.);
#228=EDGE_CURVE('',#262,#263,#268,.T.);
#229=EDGE_CURVE('',#263,#234,#269,.T.);
#230=EDGE_CURVE('',#262,#236,#270,.T.);
#231=VERTEX_POINT('',#271);
#232=VERTEX_POINT('',#272);
#233=CIRCLE('',#273,4.537867965644);
#234=VERTEX_POINT('',#274);
#235=LINE('',#275,#276);
#236=VERTEX_POINT('',#277);
#237=CIRCLE('',#278,4.75);
#238=LINE('',#279,#280);
#239=CIRCLE('',#281,4.75);
#240=CIRCLE('',#282,4.537867965644);
#241=VERTEX_POINT('',#283);
#242=LINE('',#284,#285);
#243=VERTEX_POINT('',#286);
#244=CIRCLE('',#287,3.7);
#245=LINE('',#288,#289);
#246=CIRCLE('',#290,3.7);
#247=VERTEX_POINT('',#291);
#248=VERTEX_POINT('',#292);
#249=CIRCLE('',#293,3.7);
#250=LINE('',#294,#295);
#251=LINE('',#296,#297);
#252=CIRCLE('',#298,3.7);
#253=VERTEX_POINT('',#299);
#254=VERTEX_POINT('',#300);
#255=CIRCLE('',#301,3.8);
#256=CIRCLE('',#302,3.8);
#257=VERTEX_POINT('',#303);
#258=CIRCLE('',#304,0.2);
#259=VERTEX_POINT('',#305);
#260=CIRCLE('',#306,0.2);
#261=CIRCLE('',#307,4.0);
#262=VERTEX_POINT('',#308);
#263=VERTEX_POINT('',#309);
#264=CIRCLE('',#310,4.0);
#265=LINE('',#311,#312);
#266=LINE('',#313,#314);
#267=CIRCLE('',#315,4.0);
#268=CIRCLE('',#316,4.0);
#269=LINE('',#317,#318);
#270=LINE('',#319,#320);
#271=CARTESIAN_POINT('',(-0.212132034356,4.537867965644,0.0));
#272=CARTESIAN_POINT('',(-0.212132034356,-4.537867965644,0.0));
#273=AXIS2_PLACEMENT_3D('',#321,#322,#323);
#274=CARTESIAN_POINT('',(0.0,-4.75,0.0));
#275=CARTESIAN_POINT('',(0.0,-4.75,0.0));
#276=VECTOR('',#324,0.3);
#277=CARTESIAN_POINT('',(0.0,4.75,0.0));
#278=AXIS2_PLACEMENT_3D('',#325,#326,#327);
#279=CARTESIAN_POINT('',(0.0,4.75,0.0));
#280=VECTOR('',#328,0.3);
#281=AXIS2_PLACEMENT_3D('',#329,#330,#331);
#282=AXIS2_PLACEMENT_3D('',#332,#333,#334);
#283=CARTESIAN_POINT('',(0.6257359312881,-3.7,0.0));
#284=CARTESIAN_POINT('',(-0.212132034356,-4.537867965644,0.0));
#285=VECTOR('',#335,1.184924240492);
#286=CARTESIAN_POINT('',(0.6257359312881,3.7,0.0));
#287=AXIS2_PLACEMENT_3D('',#336,#337,#338);
#288=CARTESIAN_POINT('',(-0.212132034356,4.537867965644,0.0));
#289=VECTOR('',#339,1.184924240492);
#290=AXIS2_PLACEMENT_3D('',#340,#341,#342);
#291=CARTESIAN_POINT('',(17.78786796564,3.7,0.0));
#292=CARTESIAN_POINT('',(17.78786796564,-3.7,0.0));
#293=AXIS2_PLACEMENT_3D('',#343,#344,#345);
#294=CARTESIAN_POINT('',(0.6257359312881,-3.7,0.0));
#295=VECTOR('',#346,17.16213203436);
#296=CARTESIAN_POINT('',(0.6257359312881,3.7,0.0));
#297=VECTOR('',#347,17.16213203436);
#298=AXIS2_PLACEMENT_3D('',#348,#349,#350);
#299=CARTESIAN_POINT('',(17.78786796564,3.8,0.0));
#300=CARTESIAN_POINT('',(17.78786796564,-3.8,0.0));
#301=AXIS2_PLACEMENT_3D('',#351,#352,#353);
#302=AXIS2_PLACEMENT_3D('',#354,#355,#356);
#303=CARTESIAN_POINT('',(17.58786796564,-4.0,0.0));
#304=AXIS2_PLACEMENT_3D('',#357,#358,#359);
#305=CARTESIAN_POINT('',(17.58786796564,4.0,0.0));
#306=AXIS2_PLACEMENT_3D('',#360,#361,#362);
#307=AXIS2_PLACEMENT_3D('',#363,#364,#365);
#308=CARTESIAN_POINT('',(0.75,4.0,0.0));
#309=CARTESIAN_POINT('',(0.75,-4.0,0.0));
#310=AXIS2_PLACEMENT_3D('',#366,#367,#368);
#311=CARTESIAN_POINT('',(17.58786796564,-4.0,0.0));
#312=VECTOR('',#369,16.83786796564);
#313=CARTESIAN_POINT('',(17.58786796564,4.0,0.0));
#314=VECTOR('',#370,16.83786796564);
#315=AXIS2_PLACEMENT_3D('',#371,#372,#373);
#316=AXIS2_PLACEMENT_3D('',#374,#375,#376);
#317=CARTESIAN_POINT('',(0.75,-4.0,0.0));
#318=VECTOR('',#377,1.06066017178);
#319=CARTESIAN_POINT('',(0.75,4.0,0.0));
#320=VECTOR('',#378,1.06066017178);
#321=CARTESIAN_POINT('',(-0.212132034356,0.0,0.0));
#322=DIRECTION('',(1.0,0.0,0.0));
#323=DIRECTION('',(0.0,1.0,0.0));
#324=DIRECTION('',(-0.707106781186498,0.707106781186598,0.0));
#325=CARTESIAN_POINT('',(0.0,0.0,0.0));
#326=DIRECTION('',(1.0,0.0,0.0));
#327=DIRECTION('',(0.0,1.0,0.0));
#328=DIRECTION('',(-0.707106781186498,-0.707106781186598,0.0));
#329=CARTESIAN_POINT('',(0.0,0.0,0.0));
#330=DIRECTION('',(-1.0,0.0,0.0));
#331=DIRECTION('',(0.0,1.0,0.0));
#332=CARTESIAN_POINT('',(-0.212132034356,0.0,0.0));
#333=DIRECTION('',(-1.0,0.0,0.0));
#334=DIRECTION('',(0.0,1.0,0.0));
#335=DIRECTION('',(0.707106781186548,0.707106781186548,0.0));
#336=CARTESIAN_POINT('',(0.6257359312881,0.0,0.0));
#337=DIRECTION('',(-1.0,0.0,0.0));
#338=DIRECTION('',(0.0,1.0,0.0));
#339=DIRECTION('',(0.707106781186548,-0.707106781186548,0.0));
#340=CARTESIAN_POINT('',(0.6257359312881,0.0,0.0));
#341=DIRECTION('',(1.0,0.0,0.0));
#342=DIRECTION('',(0.0,1.0,0.0));
#343=CARTESIAN_POINT('',(17.78786796564,0.0,0.0));
#344=DIRECTION('',(1.0,0.0,0.0));
#345=DIRECTION('',(0.0,1.0,0.0));
#346=DIRECTION('',(1.0,0.0,0.0));
#347=DIRECTION('',(1.0,0.0,0.0));
#348=CARTESIAN_POINT('',(17.78786796564,0.0,0.0));
#349=DIRECTION('',(-1.0,0.0,0.0));
#350=DIRECTION('',(0.0,1.0,0.0));
#351=CARTESIAN_POINT('',(17.78786796564,0.0,0.0));
#352=DIRECTION('',(-1.0,0.0,0.0));
#353=DIRECTION('',(0.0,1.0,0.0));
#354=CARTESIAN_POINT('',(17.78786796564,0.0,0.0));
#355=DIRECTION('',(1.0,0.0,0.0));
#356=DIRECTION('',(0.0,1.0,0.0));
#357=CARTESIAN_POINT('',(17.58786796564,-3.8,0.0));
#358=DIRECTION('',(0.0,0.0,1.0));
#359=DIRECTION('',(-1.7763568394E-014,-1.0,0.0));
#360=CARTESIAN_POINT('',(17.58786796564,3.8,0.0));
#361=DIRECTION('',(0.0,0.0,-1.0));
#362=DIRECTION('',(-1.7763568394E-014,1.0,0.0));
#363=CARTESIAN_POINT('',(17.58786796564,0.0,0.0));
#364=DIRECTION('',(1.0,0.0,0.0));
#365=DIRECTION('',(0.0,1.0,0.0));
#366=CARTESIAN_POINT('',(0.75,0.0,0.0));
#367=DIRECTION('',(1.0,0.0,0.0));
#368=DIRECTION('',(0.0,1.0,0.0));
#369=DIRECTION('',(-1.0,0.0,0.0));
#370=DIRECTION('',(-1.0,0.0,0.0));
#371=CARTESIAN_POINT('',(17.58786796564,0.0,0.0));
#372=DIRECTION('',(-1.0,0.0,0.0));
#373=DIRECTION('',(0.0,1.0,0.0));
#374=CARTESIAN_POINT('',(0.75,0.0,0.0));
#375=DIRECTION('',(-1.0,0.0,0.0));
#376=DIRECTION('',(0.0,1.0,0.0));
#377=DIRECTION('',(-0.707106781186548,-0.707106781186548,0.0));
#378=DIRECTION('',(-0.707106781186548,0.707106781186548,0.0));
ENDSEC;
END-ISO-10303-21;
