ISO-10303-21;
HEADER;
/****************************************************************
 * Generated by software with PDElib inside                    *
 * PDElib Version v51a, created Wed 11/30/2011                  *
 * ITI Transcendata (http://www.transcendata.com/)              *
 ****************************************************************/
FILE_DESCRIPTION((''),'2;1');
FILE_NAME('J:\\3D Zeichnungen_step\\Serie 21\\21sftf05mxx.stp','2013-09-19T13:40:15',('IA176480'),(''),'Autodesk Inventor 2013','Autodesk Inventor 2013','');
FILE_SCHEMA(('AUTOMOTIVE_DESIGN { 1 0 10303 214 1 1 1 1 }'));
ENDSEC;
DATA;
#5=APPLICATION_CONTEXT('automotive design');
#6=APPLICATION_PROTOCOL_DEFINITION('International Standard','automotive_design',2001,#5);
#7=PRODUCT_CONTEXT('',#5,'mechanical');
#8=PRODUCT('D107818','D107818',$,(#7));
#9=PRODUCT_RELATED_PRODUCT_CATEGORY('part',$,(#8));
#10=PRODUCT_DEFINITION_FORMATION('',$,#8);
#11=PRODUCT_DEFINITION_CONTEXT('part definition',#5,'design');
#12=PRODUCT_DEFINITION('',$,#10,#11);
#18=(NAMED_UNIT(*)PLANE_ANGLE_UNIT()SI_UNIT($,.RADIAN.));
#19=DIMENSIONAL_EXPONENTS(0.0,0.0,0.0,0.0,0.0,0.0,0.0);
#20=PLANE_ANGLE_MEASURE_WITH_UNIT(PLANE_ANGLE_MEASURE(0.0174532925),#18);
#24=(CONVERSION_BASED_UNIT('DEGREE',#20)NAMED_UNIT(#19)PLANE_ANGLE_UNIT());
#28=(NAMED_UNIT(*)SI_UNIT($,.STERADIAN.)SOLID_ANGLE_UNIT());
#32=(LENGTH_UNIT()NAMED_UNIT(*)SI_UNIT(.MILLI.,.METRE.));
#34=UNCERTAINTY_MEASURE_WITH_UNIT(LENGTH_MEASURE(0.01),#32,'DISTANCE_ACCURACY_VALUE','');
#36=(GEOMETRIC_REPRESENTATION_CONTEXT(3)GLOBAL_UNCERTAINTY_ASSIGNED_CONTEXT((#34))GLOBAL_UNIT_ASSIGNED_CONTEXT((#24,#28,#32))REPRESENTATION_CONTEXT('None','None'));
#37=AXIS2_PLACEMENT_3D('',#38,#39,#40);
#38=CARTESIAN_POINT('',(0.0,0.0,0.0));
#39=DIRECTION('',(0.0,0.0,1.0));
#40=DIRECTION('',(1.0,0.0,0.0));
#41=SHAPE_REPRESENTATION('',(#37),#36);
#42=PRODUCT_DEFINITION_SHAPE('','',#12);
#43=SHAPE_DEFINITION_REPRESENTATION(#42,#41);
#49=(NAMED_UNIT(*)PLANE_ANGLE_UNIT()SI_UNIT($,.RADIAN.));
#50=DIMENSIONAL_EXPONENTS(0.0,0.0,0.0,0.0,0.0,0.0,0.0);
#51=PLANE_ANGLE_MEASURE_WITH_UNIT(PLANE_ANGLE_MEASURE(0.0174532925),#49);
#55=(CONVERSION_BASED_UNIT('DEGREE',#51)NAMED_UNIT(#50)PLANE_ANGLE_UNIT());
#59=(NAMED_UNIT(*)SI_UNIT($,.STERADIAN.)SOLID_ANGLE_UNIT());
#63=(LENGTH_UNIT()NAMED_UNIT(*)SI_UNIT(.MILLI.,.METRE.));
#65=UNCERTAINTY_MEASURE_WITH_UNIT(LENGTH_MEASURE(0.000001),#63,'DISTANCE_ACCURACY_VALUE','');
#67=(GEOMETRIC_REPRESENTATION_CONTEXT(3)GLOBAL_UNCERTAINTY_ASSIGNED_CONTEXT((#65))GLOBAL_UNIT_ASSIGNED_CONTEXT((#55,#59,#63))REPRESENTATION_CONTEXT('','3D'));
#68=CARTESIAN_POINT('',(29.125,7.991251E-019,0.0));
#69=DIRECTION('',(-1.0,-2.743777E-020,0.0));
#70=DIRECTION('',(0.0,-1.0,0.0));
#71=AXIS2_PLACEMENT_3D('',#68,#69,#70);
#72=CONICAL_SURFACE('',#71,4.275,44.999999999999964);
#73=CARTESIAN_POINT('',(28.900000000000002,-4.5,0.0));
#74=VERTEX_POINT('',#73);
#75=CARTESIAN_POINT('',(28.900000000000002,7.929516E-019,0.0));
#76=DIRECTION('',(-1.0,0.0,0.0));
#77=DIRECTION('',(0.0,-1.0,0.0));
#78=AXIS2_PLACEMENT_3D('',#75,#76,#77);
#79=CIRCLE('',#78,4.5);
#80=EDGE_CURVE('',#74,#74,#79,.T.);
#81=ORIENTED_EDGE('',*,*,#80,.F.);
#82=EDGE_LOOP('',(#81));
#83=FACE_OUTER_BOUND('',#82,.T.);
#84=CARTESIAN_POINT('',(29.350000000000001,-4.050000000000001,0.0));
#85=VERTEX_POINT('',#84);
#86=CARTESIAN_POINT('',(29.350000000000001,8.052986E-019,0.0));
#87=DIRECTION('',(-1.0,0.0,0.0));
#88=DIRECTION('',(0.0,-1.0,0.0));
#89=AXIS2_PLACEMENT_3D('',#86,#87,#88);
#90=CIRCLE('',#89,4.050000000000001);
#91=EDGE_CURVE('',#85,#85,#90,.T.);
#92=ORIENTED_EDGE('',*,*,#91,.T.);
#93=EDGE_LOOP('',(#92));
#94=FACE_BOUND('',#93,.T.);
#95=ADVANCED_FACE('',(#83,#94),#72,.T.);
#96=CARTESIAN_POINT('',(28.399999999999999,7.792327E-019,0.0));
#97=DIRECTION('',(-1.0,-2.743777E-020,0.0));
#98=DIRECTION('',(0.0,-1.0,0.0));
#99=AXIS2_PLACEMENT_3D('',#96,#97,#98);
#100=CYLINDRICAL_SURFACE('',#99,4.5);
#101=CARTESIAN_POINT('',(27.899999999999999,-4.5,0.0));
#102=VERTEX_POINT('',#101);
#103=CARTESIAN_POINT('',(27.899999999999999,7.655138E-019,0.0));
#104=DIRECTION('',(-1.0,0.0,0.0));
#105=DIRECTION('',(0.0,-1.0,0.0));
#106=AXIS2_PLACEMENT_3D('',#103,#104,#105);
#107=CIRCLE('',#106,4.5);
#108=EDGE_CURVE('',#102,#102,#107,.T.);
#109=ORIENTED_EDGE('',*,*,#108,.F.);
#110=EDGE_LOOP('',(#109));
#111=FACE_OUTER_BOUND('',#110,.T.);
#112=ORIENTED_EDGE('',*,*,#80,.T.);
#113=EDGE_LOOP('',(#112));
#114=FACE_BOUND('',#113,.T.);
#115=ADVANCED_FACE('',(#111,#114),#100,.T.);
#116=CARTESIAN_POINT('',(27.458946609406727,7.534123E-019,0.0));
#117=DIRECTION('',(1.0,2.743777E-020,0.0));
#118=DIRECTION('',(0.0,-1.0,0.0));
#119=AXIS2_PLACEMENT_3D('',#116,#117,#118);
#120=CONICAL_SURFACE('',#119,4.058946609406728,44.999999999999986);
#121=CARTESIAN_POINT('',(27.017893218813455,-3.617893218813454,0.0));
#122=VERTEX_POINT('',#121);
#123=CARTESIAN_POINT('',(27.017893218813455,7.413108E-019,0.0));
#124=DIRECTION('',(-1.0,0.0,0.0));
#125=DIRECTION('',(0.0,-1.0,0.0));
#126=AXIS2_PLACEMENT_3D('',#123,#124,#125);
#127=CIRCLE('',#126,3.617893218813454);
#128=EDGE_CURVE('',#122,#122,#127,.T.);
#129=ORIENTED_EDGE('',*,*,#128,.F.);
#130=EDGE_LOOP('',(#129));
#131=FACE_OUTER_BOUND('',#130,.T.);
#132=ORIENTED_EDGE('',*,*,#108,.T.);
#133=EDGE_LOOP('',(#132));
#134=FACE_BOUND('',#133,.T.);
#135=ADVANCED_FACE('',(#131,#134),#120,.T.);
#136=CARTESIAN_POINT('',(26.310786437626909,0.0,0.0));
#137=DIRECTION('',(-1.0,-2.743777E-020,0.0));
#138=DIRECTION('',(0.0,0.0,1.0));
#139=AXIS2_PLACEMENT_3D('',#136,#137,#138);
#140=TOROIDAL_SURFACE('',#139,4.32499999999999,0.99999999999999);
#141=CARTESIAN_POINT('',(26.310786437626909,-3.325,0.0));
#142=VERTEX_POINT('',#141);
#143=CARTESIAN_POINT('',(26.310786437626909,7.219093E-019,0.0));
#144=DIRECTION('',(-1.0,0.0,0.0));
#145=DIRECTION('',(0.0,-1.0,0.0));
#146=AXIS2_PLACEMENT_3D('',#143,#144,#145);
#147=CIRCLE('',#146,3.325);
#148=EDGE_CURVE('',#142,#142,#147,.T.);
#149=ORIENTED_EDGE('',*,*,#148,.F.);
#150=EDGE_LOOP('',(#149));
#151=FACE_OUTER_BOUND('',#150,.T.);
#152=ORIENTED_EDGE('',*,*,#128,.T.);
#153=EDGE_LOOP('',(#152));
#154=FACE_BOUND('',#153,.T.);
#155=ADVANCED_FACE('',(#151,#154),#140,.F.);
#156=CARTESIAN_POINT('',(25.775000000000006,7.072086E-019,0.0));
#157=DIRECTION('',(-1.0,-2.743777E-020,0.0));
#158=DIRECTION('',(0.0,-1.0,0.0));
#159=AXIS2_PLACEMENT_3D('',#156,#157,#158);
#160=CYLINDRICAL_SURFACE('',#159,3.324999999999999);
#161=CARTESIAN_POINT('',(25.239213562373099,-3.324999999999998,0.0));
#162=VERTEX_POINT('',#161);
#163=CARTESIAN_POINT('',(25.239213562373099,6.925078E-019,0.0));
#164=DIRECTION('',(-1.0,0.0,0.0));
#165=DIRECTION('',(0.0,-1.0,0.0));
#166=AXIS2_PLACEMENT_3D('',#163,#164,#165);
#167=CIRCLE('',#166,3.324999999999998);
#168=EDGE_CURVE('',#162,#162,#167,.T.);
#169=ORIENTED_EDGE('',*,*,#168,.F.);
#170=EDGE_LOOP('',(#169));
#171=FACE_OUTER_BOUND('',#170,.T.);
#172=ORIENTED_EDGE('',*,*,#148,.T.);
#173=EDGE_LOOP('',(#172));
#174=FACE_BOUND('',#173,.T.);
#175=ADVANCED_FACE('',(#171,#174),#160,.T.);
#176=CARTESIAN_POINT('',(25.239213562373099,0.0,0.0));
#177=DIRECTION('',(-1.0,-2.743777E-020,0.0));
#178=DIRECTION('',(0.0,0.0,1.0));
#179=AXIS2_PLACEMENT_3D('',#176,#177,#178);
#180=TOROIDAL_SURFACE('',#179,4.324999999999995,0.999999999999997);
#181=CARTESIAN_POINT('',(24.532106781186549,-3.617893218813455,0.0));
#182=VERTEX_POINT('',#181);
#183=CARTESIAN_POINT('',(24.532106781186549,6.731063E-019,0.0));
#184=DIRECTION('',(-1.0,0.0,0.0));
#185=DIRECTION('',(0.0,-1.0,0.0));
#186=AXIS2_PLACEMENT_3D('',#183,#184,#185);
#187=CIRCLE('',#186,3.617893218813455);
#188=EDGE_CURVE('',#182,#182,#187,.T.);
#189=ORIENTED_EDGE('',*,*,#188,.F.);
#190=EDGE_LOOP('',(#189));
#191=FACE_OUTER_BOUND('',#190,.T.);
#192=ORIENTED_EDGE('',*,*,#168,.T.);
#193=EDGE_LOOP('',(#192));
#194=FACE_BOUND('',#193,.T.);
#195=ADVANCED_FACE('',(#191,#194),#180,.F.);
#196=CARTESIAN_POINT('',(24.091053390593281,6.610048E-019,0.0));
#197=DIRECTION('',(-1.0,-2.743777E-020,0.0));
#198=DIRECTION('',(0.0,-1.0,0.0));
#199=AXIS2_PLACEMENT_3D('',#196,#197,#198);
#200=CONICAL_SURFACE('',#199,4.058946609406728,45.00000000000022);
#201=CARTESIAN_POINT('',(23.650000000000013,-4.5,0.0));
#202=VERTEX_POINT('',#201);
#203=CARTESIAN_POINT('',(23.650000000000013,6.489033E-019,0.0));
#204=DIRECTION('',(-1.0,0.0,0.0));
#205=DIRECTION('',(0.0,-1.0,0.0));
#206=AXIS2_PLACEMENT_3D('',#203,#204,#205);
#207=CIRCLE('',#206,4.5);
#208=EDGE_CURVE('',#202,#202,#207,.T.);
#209=ORIENTED_EDGE('',*,*,#208,.F.);
#210=EDGE_LOOP('',(#209));
#211=FACE_OUTER_BOUND('',#210,.T.);
#212=ORIENTED_EDGE('',*,*,#188,.T.);
#213=EDGE_LOOP('',(#212));
#214=FACE_BOUND('',#213,.T.);
#215=ADVANCED_FACE('',(#211,#214),#200,.T.);
#216=CARTESIAN_POINT('',(20.475000000000009,5.617884E-019,0.0));
#217=DIRECTION('',(-1.0,-2.743777E-020,0.0));
#218=DIRECTION('',(0.0,-1.0,0.0));
#219=AXIS2_PLACEMENT_3D('',#216,#217,#218);
#220=CYLINDRICAL_SURFACE('',#219,4.500000000000001);
#221=CARTESIAN_POINT('',(17.300000000000001,-4.500000000000001,0.0));
#222=VERTEX_POINT('',#221);
#223=CARTESIAN_POINT('',(17.300000000000001,4.746734E-019,0.0));
#224=DIRECTION('',(-1.0,0.0,0.0));
#225=DIRECTION('',(0.0,-1.0,0.0));
#226=AXIS2_PLACEMENT_3D('',#223,#224,#225);
#227=CIRCLE('',#226,4.500000000000001);
#228=EDGE_CURVE('',#222,#222,#227,.T.);
#229=ORIENTED_EDGE('',*,*,#228,.F.);
#230=EDGE_LOOP('',(#229));
#231=FACE_OUTER_BOUND('',#230,.T.);
#232=ORIENTED_EDGE('',*,*,#208,.T.);
#233=EDGE_LOOP('',(#232));
#234=FACE_BOUND('',#233,.T.);
#235=ADVANCED_FACE('',(#231,#234),#220,.T.);
#236=CARTESIAN_POINT('',(17.150000000000002,4.705578E-019,0.0));
#237=DIRECTION('',(1.0,2.743777E-020,0.0));
#238=DIRECTION('',(0.0,-1.0,0.0));
#239=AXIS2_PLACEMENT_3D('',#236,#237,#238);
#240=CONICAL_SURFACE('',#239,4.350000000000001,44.99999999999995);
#241=CARTESIAN_POINT('',(17.0,-4.200000000000001,0.0));
#242=VERTEX_POINT('',#241);
#243=CARTESIAN_POINT('',(17.0,4.664421E-019,0.0));
#244=DIRECTION('',(-1.0,0.0,0.0));
#245=DIRECTION('',(0.0,-1.0,0.0));
#246=AXIS2_PLACEMENT_3D('',#243,#244,#245);
#247=CIRCLE('',#246,4.200000000000001);
#248=EDGE_CURVE('',#242,#242,#247,.T.);
#249=ORIENTED_EDGE('',*,*,#248,.F.);
#250=EDGE_LOOP('',(#249));
#251=FACE_OUTER_BOUND('',#250,.T.);
#252=ORIENTED_EDGE('',*,*,#228,.T.);
#253=EDGE_LOOP('',(#252));
#254=FACE_BOUND('',#253,.T.);
#255=ADVANCED_FACE('',(#251,#254),#240,.T.);
#256=CARTESIAN_POINT('',(17.0,-3.612500000000001,0.0));
#257=DIRECTION('',(-1.0,0.0,0.0));
#258=DIRECTION('',(0.0,0.0,1.0));
#259=AXIS2_PLACEMENT_3D('',#256,#257,#258);
#260=PLANE('',#259);
#261=ORIENTED_EDGE('',*,*,#248,.T.);
#262=EDGE_LOOP('',(#261));
#263=FACE_OUTER_BOUND('',#262,.T.);
#264=CARTESIAN_POINT('',(17.0,-3.025,0.0));
#265=VERTEX_POINT('',#264);
#266=CARTESIAN_POINT('',(17.0,4.664421E-019,0.0));
#267=DIRECTION('',(-1.0,0.0,0.0));
#268=DIRECTION('',(0.0,-1.0,0.0));
#269=AXIS2_PLACEMENT_3D('',#266,#267,#268);
#270=CIRCLE('',#269,3.025);
#271=EDGE_CURVE('',#265,#265,#270,.T.);
#272=ORIENTED_EDGE('',*,*,#271,.F.);
#273=EDGE_LOOP('',(#272));
#274=FACE_BOUND('',#273,.T.);
#275=ADVANCED_FACE('',(#263,#274),#260,.T.);
#276=CARTESIAN_POINT('',(16.5,0.0,0.0));
#277=DIRECTION('',(-1.0,-2.743777E-020,0.0));
#278=DIRECTION('',(0.0,0.0,1.0));
#279=AXIS2_PLACEMENT_3D('',#276,#277,#278);
#280=TOROIDAL_SURFACE('',#279,3.025000000000002,0.500000000000003);
#281=CARTESIAN_POINT('',(16.5,-2.524999999999999,0.0));
#282=VERTEX_POINT('',#281);
#283=CARTESIAN_POINT('',(16.5,4.527232E-019,0.0));
#284=DIRECTION('',(-1.0,0.0,0.0));
#285=DIRECTION('',(0.0,-1.0,0.0));
#286=AXIS2_PLACEMENT_3D('',#283,#284,#285);
#287=CIRCLE('',#286,2.524999999999999);
#288=EDGE_CURVE('',#282,#282,#287,.T.);
#289=ORIENTED_EDGE('',*,*,#288,.F.);
#290=EDGE_LOOP('',(#289));
#291=FACE_OUTER_BOUND('',#290,.T.);
#292=ORIENTED_EDGE('',*,*,#271,.T.);
#293=EDGE_LOOP('',(#292));
#294=FACE_BOUND('',#293,.T.);
#295=ADVANCED_FACE('',(#291,#294),#280,.F.);
#296=CARTESIAN_POINT('',(12.750000000000002,3.498316E-019,0.0));
#297=DIRECTION('',(-1.0,-2.743777E-020,0.0));
#298=DIRECTION('',(0.0,-1.0,0.0));
#299=AXIS2_PLACEMENT_3D('',#296,#297,#298);
#300=CYLINDRICAL_SURFACE('',#299,2.525);
#301=CARTESIAN_POINT('',(9.000000000000002,-2.525,0.0));
#302=VERTEX_POINT('',#301);
#303=CARTESIAN_POINT('',(9.000000000000004,2.469399E-019,0.0));
#304=DIRECTION('',(-1.0,0.0,0.0));
#305=DIRECTION('',(0.0,-1.0,0.0));
#306=AXIS2_PLACEMENT_3D('',#303,#304,#305);
#307=CIRCLE('',#306,2.525);
#308=EDGE_CURVE('',#302,#302,#307,.T.);
#309=ORIENTED_EDGE('',*,*,#308,.F.);
#310=EDGE_LOOP('',(#309));
#311=FACE_OUTER_BOUND('',#310,.T.);
#312=ORIENTED_EDGE('',*,*,#288,.T.);
#313=EDGE_LOOP('',(#312));
#314=FACE_BOUND('',#313,.T.);
#315=ADVANCED_FACE('',(#311,#314),#300,.T.);
#316=CARTESIAN_POINT('',(9.000000000000002,-2.6375,0.0));
#317=DIRECTION('',(1.0,0.0,0.0));
#318=DIRECTION('',(0.0,0.0,-1.0));
#319=AXIS2_PLACEMENT_3D('',#316,#317,#318);
#320=PLANE('',#319);
#321=CARTESIAN_POINT('',(9.000000000000002,-2.75,0.0));
#322=VERTEX_POINT('',#321);
#323=CARTESIAN_POINT('',(9.000000000000004,2.469399E-019,0.0));
#324=DIRECTION('',(-1.0,0.0,0.0));
#325=DIRECTION('',(0.0,-1.0,0.0));
#326=AXIS2_PLACEMENT_3D('',#323,#324,#325);
#327=CIRCLE('',#326,2.75);
#328=EDGE_CURVE('',#322,#322,#327,.T.);
#329=ORIENTED_EDGE('',*,*,#328,.F.);
#330=EDGE_LOOP('',(#329));
#331=FACE_OUTER_BOUND('',#330,.T.);
#332=ORIENTED_EDGE('',*,*,#308,.T.);
#333=EDGE_LOOP('',(#332));
#334=FACE_BOUND('',#333,.T.);
#335=ADVANCED_FACE('',(#331,#334),#320,.T.);
#336=CARTESIAN_POINT('',(8.700000000000003,0.0,0.0));
#337=DIRECTION('',(-1.0,-2.743777E-020,0.0));
#338=DIRECTION('',(0.0,0.0,1.0));
#339=AXIS2_PLACEMENT_3D('',#336,#337,#338);
#340=TOROIDAL_SURFACE('',#339,2.75,0.300000000000001);
#341=CARTESIAN_POINT('',(8.647905546699924,-3.045442325903663,0.0));
#342=VERTEX_POINT('',#341);
#343=CARTESIAN_POINT('',(8.647905546699924,2.372793E-019,0.0));
#344=DIRECTION('',(-1.0,0.0,0.0));
#345=DIRECTION('',(0.0,-1.0,0.0));
#346=AXIS2_PLACEMENT_3D('',#343,#344,#345);
#347=CIRCLE('',#346,3.045442325903663);
#348=EDGE_CURVE('',#342,#342,#347,.T.);
#349=ORIENTED_EDGE('',*,*,#348,.F.);
#350=EDGE_LOOP('',(#349));
#351=FACE_OUTER_BOUND('',#350,.T.);
#352=ORIENTED_EDGE('',*,*,#328,.T.);
#353=EDGE_LOOP('',(#352));
#354=FACE_BOUND('',#353,.T.);
#355=ADVANCED_FACE('',(#351,#354),#340,.T.);
#356=CARTESIAN_POINT('',(6.57395277334996,1.803746E-019,0.0));
#357=DIRECTION('',(1.0,2.743777E-020,0.0));
#358=DIRECTION('',(0.0,-1.0,0.0));
#359=AXIS2_PLACEMENT_3D('',#356,#357,#358);
#360=CONICAL_SURFACE('',#359,2.679748495246917,9.999999999999973);
#361=CARTESIAN_POINT('',(4.500000000000001,-2.314054664590173,0.0));
#362=VERTEX_POINT('',#361);
#363=CARTESIAN_POINT('',(4.500000000000002,1.234700E-019,0.0));
#364=DIRECTION('',(-1.0,0.0,0.0));
#365=DIRECTION('',(0.0,-1.0,0.0));
#366=AXIS2_PLACEMENT_3D('',#363,#364,#365);
#367=CIRCLE('',#366,2.314054664590173);
#368=EDGE_CURVE('',#362,#362,#367,.T.);
#369=ORIENTED_EDGE('',*,*,#368,.F.);
#370=EDGE_LOOP('',(#369));
#371=FACE_OUTER_BOUND('',#370,.T.);
#372=ORIENTED_EDGE('',*,*,#348,.T.);
#373=EDGE_LOOP('',(#372));
#374=FACE_BOUND('',#373,.T.);
#375=ADVANCED_FACE('',(#371,#374),#360,.T.);
#376=CARTESIAN_POINT('',(4.500000000000001,-2.532027332295086,0.0));
#377=DIRECTION('',(1.0,0.0,0.0));
#378=DIRECTION('',(0.0,0.0,-1.0));
#379=AXIS2_PLACEMENT_3D('',#376,#377,#378);
#380=PLANE('',#379);
#381=CARTESIAN_POINT('',(4.500000000000001,-2.75,0.0));
#382=VERTEX_POINT('',#381);
#383=CARTESIAN_POINT('',(4.500000000000002,1.234700E-019,0.0));
#384=DIRECTION('',(-1.0,0.0,0.0));
#385=DIRECTION('',(0.0,-1.0,0.0));
#386=AXIS2_PLACEMENT_3D('',#383,#384,#385);
#387=CIRCLE('',#386,2.75);
#388=EDGE_CURVE('',#382,#382,#387,.T.);
#389=ORIENTED_EDGE('',*,*,#388,.F.);
#390=EDGE_LOOP('',(#389));
#391=FACE_OUTER_BOUND('',#390,.T.);
#392=ORIENTED_EDGE('',*,*,#368,.T.);
#393=EDGE_LOOP('',(#392));
#394=FACE_BOUND('',#393,.T.);
#395=ADVANCED_FACE('',(#391,#394),#380,.T.);
#396=CARTESIAN_POINT('',(4.200000000000001,0.0,0.0));
#397=DIRECTION('',(-1.0,-2.743777E-020,0.0));
#398=DIRECTION('',(0.0,0.0,1.0));
#399=AXIS2_PLACEMENT_3D('',#396,#397,#398);
#400=TOROIDAL_SURFACE('',#399,2.75,0.299999999999999);
#401=CARTESIAN_POINT('',(4.122354286469245,-3.039777747886721,0.0));
#402=VERTEX_POINT('',#401);
#403=CARTESIAN_POINT('',(4.122354286469245,1.131082E-019,0.0));
#404=DIRECTION('',(-1.0,0.0,0.0));
#405=DIRECTION('',(0.0,-1.0,0.0));
#406=AXIS2_PLACEMENT_3D('',#403,#404,#405);
#407=CIRCLE('',#406,3.039777747886721);
#408=EDGE_CURVE('',#402,#402,#407,.T.);
#409=ORIENTED_EDGE('',*,*,#408,.F.);
#410=EDGE_LOOP('',(#409));
#411=FACE_OUTER_BOUND('',#410,.T.);
#412=ORIENTED_EDGE('',*,*,#388,.T.);
#413=EDGE_LOOP('',(#412));
#414=FACE_BOUND('',#413,.T.);
#415=ADVANCED_FACE('',(#411,#414),#400,.T.);
#416=CARTESIAN_POINT('',(2.172354286469247,5.960456E-020,0.0));
#417=DIRECTION('',(1.0,2.743777E-020,0.0));
#418=DIRECTION('',(0.0,-1.0,0.0));
#419=AXIS2_PLACEMENT_3D('',#416,#417,#418);
#420=CONICAL_SURFACE('',#419,2.517276822646033,14.999999999999977);
#421=CARTESIAN_POINT('',(0.222354286469244,-1.994775897405344,0.0));
#422=VERTEX_POINT('',#421);
#423=CARTESIAN_POINT('',(0.222354286469244,6.100906E-021,0.0));
#424=DIRECTION('',(-1.0,0.0,0.0));
#425=DIRECTION('',(0.0,-1.0,0.0));
#426=AXIS2_PLACEMENT_3D('',#423,#424,#425);
#427=CIRCLE('',#426,1.994775897405344);
#428=EDGE_CURVE('',#422,#422,#427,.T.);
#429=ORIENTED_EDGE('',*,*,#428,.F.);
#430=EDGE_LOOP('',(#429));
#431=FACE_OUTER_BOUND('',#430,.T.);
#432=ORIENTED_EDGE('',*,*,#408,.T.);
#433=EDGE_LOOP('',(#432));
#434=FACE_BOUND('',#433,.T.);
#435=ADVANCED_FACE('',(#431,#434),#420,.T.);
#436=CARTESIAN_POINT('',(0.300000000000001,0.0,0.0));
#437=DIRECTION('',(-1.0,-2.743777E-020,0.0));
#438=DIRECTION('',(0.0,0.0,1.0));
#439=AXIS2_PLACEMENT_3D('',#436,#437,#438);
#440=TOROIDAL_SURFACE('',#439,1.704998149518624,0.3);
#441=CARTESIAN_POINT('',(4.857226E-016,-1.704998149518624,0.0));
#442=VERTEX_POINT('',#441);
#443=CARTESIAN_POINT('',(0.0,0.0,0.0));
#444=DIRECTION('',(-1.0,0.0,0.0));
#445=DIRECTION('',(0.0,-1.0,0.0));
#446=AXIS2_PLACEMENT_3D('',#443,#444,#445);
#447=CIRCLE('',#446,1.704998149518624);
#448=EDGE_CURVE('',#442,#442,#447,.T.);
#449=ORIENTED_EDGE('',*,*,#448,.F.);
#450=EDGE_LOOP('',(#449));
#451=FACE_OUTER_BOUND('',#450,.T.);
#452=ORIENTED_EDGE('',*,*,#428,.T.);
#453=EDGE_LOOP('',(#452));
#454=FACE_BOUND('',#453,.T.);
#455=ADVANCED_FACE('',(#451,#454),#440,.T.);
#456=CARTESIAN_POINT('',(2.428613E-016,-1.602499074759313,0.0));
#457=DIRECTION('',(-1.0,0.0,0.0));
#458=DIRECTION('',(0.0,0.0,1.0));
#459=AXIS2_PLACEMENT_3D('',#456,#457,#458);
#460=PLANE('',#459);
#461=ORIENTED_EDGE('',*,*,#448,.T.);
#462=EDGE_LOOP('',(#461));
#463=FACE_OUTER_BOUND('',#462,.T.);
#464=CARTESIAN_POINT('',(0.0,-1.500000000000003,0.0));
#465=VERTEX_POINT('',#464);
#466=CARTESIAN_POINT('',(0.0,0.0,0.0));
#467=DIRECTION('',(-1.0,0.0,0.0));
#468=DIRECTION('',(0.0,-1.0,0.0));
#469=AXIS2_PLACEMENT_3D('',#466,#467,#468);
#470=CIRCLE('',#469,1.500000000000003);
#471=EDGE_CURVE('',#465,#465,#470,.T.);
#472=ORIENTED_EDGE('',*,*,#471,.F.);
#473=EDGE_LOOP('',(#472));
#474=FACE_BOUND('',#473,.T.);
#475=ADVANCED_FACE('',(#463,#474),#460,.T.);
#476=CARTESIAN_POINT('',(9.012499999999996,2.472829E-019,0.0));
#477=DIRECTION('',(-1.0,-2.743777E-020,0.0));
#478=DIRECTION('',(0.0,-1.0,0.0));
#479=AXIS2_PLACEMENT_3D('',#476,#477,#478);
#480=CYLINDRICAL_SURFACE('',#479,1.5);
#481=CARTESIAN_POINT('',(18.024999999999995,-1.499999999999998,0.0));
#482=VERTEX_POINT('',#481);
#483=CARTESIAN_POINT('',(18.024999999999995,4.945658E-019,0.0));
#484=DIRECTION('',(-1.0,0.0,0.0));
#485=DIRECTION('',(0.0,-1.0,0.0));
#486=AXIS2_PLACEMENT_3D('',#483,#484,#485);
#487=CIRCLE('',#486,1.499999999999998);
#488=EDGE_CURVE('',#482,#482,#487,.T.);
#489=ORIENTED_EDGE('',*,*,#488,.F.);
#490=EDGE_LOOP('',(#489));
#491=FACE_OUTER_BOUND('',#490,.T.);
#492=ORIENTED_EDGE('',*,*,#471,.T.);
#493=EDGE_LOOP('',(#492));
#494=FACE_BOUND('',#493,.T.);
#495=ADVANCED_FACE('',(#491,#494),#480,.F.);
#496=CARTESIAN_POINT('',(18.512499999999999,5.079417E-019,0.0));
#497=DIRECTION('',(1.0,2.743777E-020,0.0));
#498=DIRECTION('',(0.0,-1.0,0.0));
#499=AXIS2_PLACEMENT_3D('',#496,#497,#498);
#500=CONICAL_SURFACE('',#499,1.9875,44.999999999999943);
#501=CARTESIAN_POINT('',(19.0,-2.475000000000001,0.0));
#502=VERTEX_POINT('',#501);
#503=CARTESIAN_POINT('',(19.0,5.213177E-019,0.0));
#504=DIRECTION('',(-1.0,0.0,0.0));
#505=DIRECTION('',(0.0,-1.0,0.0));
#506=AXIS2_PLACEMENT_3D('',#503,#504,#505);
#507=CIRCLE('',#506,2.475000000000001);
#508=EDGE_CURVE('',#502,#502,#507,.T.);
#509=ORIENTED_EDGE('',*,*,#508,.F.);
#510=EDGE_LOOP('',(#509));
#511=FACE_OUTER_BOUND('',#510,.T.);
#512=ORIENTED_EDGE('',*,*,#488,.T.);
#513=EDGE_LOOP('',(#512));
#514=FACE_BOUND('',#513,.T.);
#515=ADVANCED_FACE('',(#511,#514),#500,.F.);
#516=CARTESIAN_POINT('',(25.500000000000004,6.996632E-019,0.0));
#517=DIRECTION('',(-1.0,-2.743777E-020,0.0));
#518=DIRECTION('',(0.0,-1.0,0.0));
#519=AXIS2_PLACEMENT_3D('',#516,#517,#518);
#520=CYLINDRICAL_SURFACE('',#519,2.475);
#521=CARTESIAN_POINT('',(32.0,-2.474999999999998,0.0));
#522=VERTEX_POINT('',#521);
#523=CARTESIAN_POINT('',(32.0,8.780087E-019,0.0));
#524=DIRECTION('',(-1.0,0.0,0.0));
#525=DIRECTION('',(0.0,-1.0,0.0));
#526=AXIS2_PLACEMENT_3D('',#523,#524,#525);
#527=CIRCLE('',#526,2.474999999999998);
#528=EDGE_CURVE('',#522,#522,#527,.T.);
#529=ORIENTED_EDGE('',*,*,#528,.F.);
#530=EDGE_LOOP('',(#529));
#531=FACE_OUTER_BOUND('',#530,.T.);
#532=ORIENTED_EDGE('',*,*,#508,.T.);
#533=EDGE_LOOP('',(#532));
#534=FACE_BOUND('',#533,.T.);
#535=ADVANCED_FACE('',(#531,#534),#520,.F.);
#536=CARTESIAN_POINT('',(32.0,-2.962499999999999,0.0));
#537=DIRECTION('',(1.0,0.0,0.0));
#538=DIRECTION('',(0.0,0.0,-1.0));
#539=AXIS2_PLACEMENT_3D('',#536,#537,#538);
#540=PLANE('',#539);
#541=CARTESIAN_POINT('',(32.0,-3.45,0.0));
#542=VERTEX_POINT('',#541);
#543=CARTESIAN_POINT('',(32.0,8.780087E-019,0.0));
#544=DIRECTION('',(-1.0,0.0,0.0));
#545=DIRECTION('',(0.0,-1.0,0.0));
#546=AXIS2_PLACEMENT_3D('',#543,#544,#545);
#547=CIRCLE('',#546,3.45);
#548=EDGE_CURVE('',#542,#542,#547,.T.);
#549=ORIENTED_EDGE('',*,*,#548,.F.);
#550=EDGE_LOOP('',(#549));
#551=FACE_OUTER_BOUND('',#550,.T.);
#552=ORIENTED_EDGE('',*,*,#528,.T.);
#553=EDGE_LOOP('',(#552));
#554=FACE_BOUND('',#553,.T.);
#555=ADVANCED_FACE('',(#551,#554),#540,.T.);
#556=CARTESIAN_POINT('',(31.400000000000002,0.0,0.0));
#557=DIRECTION('',(-1.0,-2.743777E-020,0.0));
#558=DIRECTION('',(0.0,0.0,1.0));
#559=AXIS2_PLACEMENT_3D('',#556,#557,#558);
#560=TOROIDAL_SURFACE('',#559,3.450000000000001,0.600000000000001);
#561=CARTESIAN_POINT('',(31.400000000000002,-4.050000000000002,0.0));
#562=VERTEX_POINT('',#561);
#563=CARTESIAN_POINT('',(31.400000000000002,8.615460E-019,0.0));
#564=DIRECTION('',(-1.0,0.0,0.0));
#565=DIRECTION('',(0.0,-1.0,0.0));
#566=AXIS2_PLACEMENT_3D('',#563,#564,#565);
#567=CIRCLE('',#566,4.050000000000002);
#568=EDGE_CURVE('',#562,#562,#567,.T.);
#569=ORIENTED_EDGE('',*,*,#568,.F.);
#570=EDGE_LOOP('',(#569));
#571=FACE_OUTER_BOUND('',#570,.T.);
#572=ORIENTED_EDGE('',*,*,#548,.T.);
#573=EDGE_LOOP('',(#572));
#574=FACE_BOUND('',#573,.T.);
#575=ADVANCED_FACE('',(#571,#574),#560,.T.);
#576=CARTESIAN_POINT('',(30.375,8.334223E-019,0.0));
#577=DIRECTION('',(-1.0,-2.743777E-020,0.0));
#578=DIRECTION('',(0.0,-1.0,0.0));
#579=AXIS2_PLACEMENT_3D('',#576,#577,#578);
#580=CYLINDRICAL_SURFACE('',#579,4.050000000000002);
#581=ORIENTED_EDGE('',*,*,#91,.F.);
#582=EDGE_LOOP('',(#581));
#583=FACE_OUTER_BOUND('',#582,.T.);
#584=ORIENTED_EDGE('',*,*,#568,.T.);
#585=EDGE_LOOP('',(#584));
#586=FACE_BOUND('',#585,.T.);
#587=ADVANCED_FACE('',(#583,#586),#580,.T.);
#588=CLOSED_SHELL('',(#95,#115,#135,#155,#175,#195,#215,#235,#255,#275,#295,#315,#335,#355,#375,#395,#415,#435,#455,#475,#495,#515,#535,#555,#575,#587));
#589=MANIFOLD_SOLID_BREP('Solid1',#588);
#590=COLOUR_RGB('Metal-Brass',0.780391991138458,0.568626999855042,0.113724999129772);
#591=FILL_AREA_STYLE_COLOUR('Metal-Brass',#590);
#592=FILL_AREA_STYLE('Metal-Brass',(#591));
#593=SURFACE_STYLE_FILL_AREA(#592);
#594=SURFACE_SIDE_STYLE('Metal-Brass',(#593));
#595=SURFACE_STYLE_USAGE(.BOTH.,#594);
#596=PRESENTATION_STYLE_ASSIGNMENT((#595));
#597=STYLED_ITEM('',(#596),#589);
#598=MECHANICAL_DESIGN_GEOMETRIC_PRESENTATION_REPRESENTATION('',(#597),#36);
#599=ADVANCED_BREP_SHAPE_REPRESENTATION('ABSR',(#589),#36);
#600=SHAPE_REPRESENTATION_RELATIONSHIP('SRR','None',#599,#41);
ENDSEC;
END-ISO-10303-21;
