ISO-10303-21;
HEADER;
/****************************************************************
 * Generated by software with PDElib inside                    *
 * PDElib Version v51a, created Wed 11/30/2011                  *
 * ITI Transcendata (http://www.transcendata.com/)              *
 ****************************************************************/
FILE_DESCRIPTION((''),'2;1');
FILE_NAME('J:\\3D Zeichnungen_step\\Serie 27\\27sftf13sxn.stp','2014-06-10T08:59:50',('IA176480'),(''),'Autodesk Inventor 2013','Autodesk Inventor 2013','');
FILE_SCHEMA(('AUTOMOTIVE_DESIGN { 1 0 10303 214 1 1 1 1 }'));
ENDSEC;
DATA;
#5=APPLICATION_CONTEXT('automotive design');
#6=APPLICATION_PROTOCOL_DEFINITION('International Standard','automotive_design',2001,#5);
#7=PRODUCT_CONTEXT('',#5,'mechanical');
#8=PRODUCT('D106658','D106658',$,(#7));
#9=PRODUCT_RELATED_PRODUCT_CATEGORY('part',$,(#8));
#10=PRODUCT_DEFINITION_FORMATION('',$,#8);
#11=PRODUCT_DEFINITION_CONTEXT('part definition',#5,'design');
#12=PRODUCT_DEFINITION('',$,#10,#11);
#18=(NAMED_UNIT(*)PLANE_ANGLE_UNIT()SI_UNIT($,.RADIAN.));
#19=DIMENSIONAL_EXPONENTS(0.0,0.0,0.0,0.0,0.0,0.0,0.0);
#20=PLANE_ANGLE_MEASURE_WITH_UNIT(PLANE_ANGLE_MEASURE(0.0174532925),#18);
#24=(CONVERSION_BASED_UNIT('DEGREE',#20)NAMED_UNIT(#19)PLANE_ANGLE_UNIT());
#28=(NAMED_UNIT(*)SI_UNIT($,.STERADIAN.)SOLID_ANGLE_UNIT());
#32=(LENGTH_UNIT()NAMED_UNIT(*)SI_UNIT(.MILLI.,.METRE.));
#34=UNCERTAINTY_MEASURE_WITH_UNIT(LENGTH_MEASURE(0.01),#32,'DISTANCE_ACCURACY_VALUE','');
#36=(GEOMETRIC_REPRESENTATION_CONTEXT(3)GLOBAL_UNCERTAINTY_ASSIGNED_CONTEXT((#34))GLOBAL_UNIT_ASSIGNED_CONTEXT((#24,#28,#32))REPRESENTATION_CONTEXT('None','None'));
#37=AXIS2_PLACEMENT_3D('',#38,#39,#40);
#38=CARTESIAN_POINT('',(0.0,0.0,0.0));
#39=DIRECTION('',(0.0,0.0,1.0));
#40=DIRECTION('',(1.0,0.0,0.0));
#41=SHAPE_REPRESENTATION('',(#37),#36);
#42=PRODUCT_DEFINITION_SHAPE('','',#12);
#43=SHAPE_DEFINITION_REPRESENTATION(#42,#41);
#49=(NAMED_UNIT(*)PLANE_ANGLE_UNIT()SI_UNIT($,.RADIAN.));
#50=DIMENSIONAL_EXPONENTS(0.0,0.0,0.0,0.0,0.0,0.0,0.0);
#51=PLANE_ANGLE_MEASURE_WITH_UNIT(PLANE_ANGLE_MEASURE(0.0174532925),#49);
#55=(CONVERSION_BASED_UNIT('DEGREE',#51)NAMED_UNIT(#50)PLANE_ANGLE_UNIT());
#59=(NAMED_UNIT(*)SI_UNIT($,.STERADIAN.)SOLID_ANGLE_UNIT());
#63=(LENGTH_UNIT()NAMED_UNIT(*)SI_UNIT(.MILLI.,.METRE.));
#65=UNCERTAINTY_MEASURE_WITH_UNIT(LENGTH_MEASURE(0.000001),#63,'DISTANCE_ACCURACY_VALUE','');
#67=(GEOMETRIC_REPRESENTATION_CONTEXT(3)GLOBAL_UNCERTAINTY_ASSIGNED_CONTEXT((#65))GLOBAL_UNIT_ASSIGNED_CONTEXT((#55,#59,#63))REPRESENTATION_CONTEXT('','3D'));
#68=CARTESIAN_POINT('',(8.510786437626905,0.0,0.0));
#69=DIRECTION('',(1.0,0.0,0.0));
#70=DIRECTION('',(0.0,0.0,-1.0));
#71=AXIS2_PLACEMENT_3D('',#68,#69,#70);
#72=TOROIDAL_SURFACE('',#71,7.324999999999999,1.0);
#73=CARTESIAN_POINT('',(8.510786437626905,6.324999999999999,0.0));
#74=VERTEX_POINT('',#73);
#75=CARTESIAN_POINT('',(8.510786437626905,0.0,0.0));
#76=DIRECTION('',(1.0,0.0,0.0));
#77=DIRECTION('',(0.0,-1.0,0.0));
#78=AXIS2_PLACEMENT_3D('',#75,#76,#77);
#79=CIRCLE('',#78,6.324999999999999);
#80=EDGE_CURVE('',#74,#74,#79,.T.);
#81=ORIENTED_EDGE('',*,*,#80,.T.);
#82=EDGE_LOOP('',(#81));
#83=FACE_OUTER_BOUND('',#82,.T.);
#84=CARTESIAN_POINT('',(9.217893218813453,6.617893218813452,-1.620916E-015));
#85=VERTEX_POINT('',#84);
#86=CARTESIAN_POINT('',(9.217893218813453,0.0,-8.104582E-016));
#87=DIRECTION('',(-1.0,0.0,0.0));
#88=DIRECTION('',(0.0,-1.0,0.0));
#89=AXIS2_PLACEMENT_3D('',#86,#87,#88);
#90=CIRCLE('',#89,6.617893218813452);
#91=EDGE_CURVE('',#85,#85,#90,.T.);
#92=ORIENTED_EDGE('',*,*,#91,.T.);
#93=EDGE_LOOP('',(#92));
#94=FACE_BOUND('',#93,.T.);
#95=ADVANCED_FACE('',(#83,#94),#72,.F.);
#96=CARTESIAN_POINT('',(8.075000000000001,0.0,0.0));
#97=DIRECTION('',(1.0,0.0,0.0));
#98=DIRECTION('',(0.0,1.0,0.0));
#99=AXIS2_PLACEMENT_3D('',#96,#97,#98);
#100=CYLINDRICAL_SURFACE('',#99,6.324999999999999);
#101=CARTESIAN_POINT('',(7.639213562373094,6.324999999999999,-1.549178E-015));
#102=VERTEX_POINT('',#101);
#103=CARTESIAN_POINT('',(7.639213562373094,0.0,0.0));
#104=DIRECTION('',(-1.0,0.0,0.0));
#105=DIRECTION('',(0.0,-1.0,0.0));
#106=AXIS2_PLACEMENT_3D('',#103,#104,#105);
#107=CIRCLE('',#106,6.324999999999999);
#108=EDGE_CURVE('',#102,#102,#107,.T.);
#109=ORIENTED_EDGE('',*,*,#108,.F.);
#110=EDGE_LOOP('',(#109));
#111=FACE_OUTER_BOUND('',#110,.T.);
#112=ORIENTED_EDGE('',*,*,#80,.F.);
#113=EDGE_LOOP('',(#112));
#114=FACE_BOUND('',#113,.T.);
#115=ADVANCED_FACE('',(#111,#114),#100,.T.);
#116=CARTESIAN_POINT('',(9.512499999999999,0.0,0.0));
#117=DIRECTION('',(1.0,0.0,0.0));
#118=DIRECTION('',(0.0,1.0,0.0));
#119=AXIS2_PLACEMENT_3D('',#116,#117,#118);
#120=CONICAL_SURFACE('',#119,6.9125,45.000000000000057);
#121=CARTESIAN_POINT('',(10.099999999999998,7.499999999999998,0.0));
#122=VERTEX_POINT('',#121);
#123=CARTESIAN_POINT('',(10.099999999999998,0.0,0.0));
#124=DIRECTION('',(1.0,0.0,0.0));
#125=DIRECTION('',(0.0,1.0,0.0));
#126=AXIS2_PLACEMENT_3D('',#123,#124,#125);
#127=CIRCLE('',#126,7.499999999999998);
#128=EDGE_CURVE('',#122,#122,#127,.T.);
#129=ORIENTED_EDGE('',*,*,#128,.F.);
#130=EDGE_LOOP('',(#129));
#131=FACE_OUTER_BOUND('',#130,.T.);
#132=ORIENTED_EDGE('',*,*,#91,.F.);
#133=EDGE_LOOP('',(#132));
#134=FACE_BOUND('',#133,.T.);
#135=ADVANCED_FACE('',(#131,#134),#120,.T.);
#136=CARTESIAN_POINT('',(7.639213562373094,0.0,0.0));
#137=DIRECTION('',(1.0,0.0,0.0));
#138=DIRECTION('',(0.0,0.0,-1.0));
#139=AXIS2_PLACEMENT_3D('',#136,#137,#138);
#140=TOROIDAL_SURFACE('',#139,7.324999999999999,1.0);
#141=CARTESIAN_POINT('',(6.932106781186547,6.617893218813451,0.0));
#142=VERTEX_POINT('',#141);
#143=CARTESIAN_POINT('',(6.932106781186547,0.0,-8.104582E-016));
#144=DIRECTION('',(1.0,0.0,0.0));
#145=DIRECTION('',(0.0,-1.0,0.0));
#146=AXIS2_PLACEMENT_3D('',#143,#144,#145);
#147=CIRCLE('',#146,6.617893218813451);
#148=EDGE_CURVE('',#142,#142,#147,.T.);
#149=ORIENTED_EDGE('',*,*,#148,.T.);
#150=EDGE_LOOP('',(#149));
#151=FACE_OUTER_BOUND('',#150,.T.);
#152=ORIENTED_EDGE('',*,*,#108,.T.);
#153=EDGE_LOOP('',(#152));
#154=FACE_BOUND('',#153,.T.);
#155=ADVANCED_FACE('',(#151,#154),#140,.F.);
#156=CARTESIAN_POINT('',(6.637499999999998,0.0,0.0));
#157=DIRECTION('',(-1.0,0.0,0.0));
#158=DIRECTION('',(0.0,1.0,0.0));
#159=AXIS2_PLACEMENT_3D('',#156,#157,#158);
#160=CONICAL_SURFACE('',#159,6.9125,44.999999999999979);
#161=CARTESIAN_POINT('',(6.049999999999997,7.5,0.0));
#162=VERTEX_POINT('',#161);
#163=CARTESIAN_POINT('',(6.049999999999997,0.0,0.0));
#164=DIRECTION('',(1.0,0.0,0.0));
#165=DIRECTION('',(0.0,1.0,0.0));
#166=AXIS2_PLACEMENT_3D('',#163,#164,#165);
#167=CIRCLE('',#166,7.5);
#168=EDGE_CURVE('',#162,#162,#167,.T.);
#169=ORIENTED_EDGE('',*,*,#168,.T.);
#170=EDGE_LOOP('',(#169));
#171=FACE_OUTER_BOUND('',#170,.T.);
#172=ORIENTED_EDGE('',*,*,#148,.F.);
#173=EDGE_LOOP('',(#172));
#174=FACE_BOUND('',#173,.T.);
#175=ADVANCED_FACE('',(#171,#174),#160,.T.);
#176=CARTESIAN_POINT('',(40.200000000000003,0.0,0.0));
#177=DIRECTION('',(1.0,0.0,0.0));
#178=DIRECTION('',(0.0,0.0,-1.0));
#179=AXIS2_PLACEMENT_3D('',#176,#177,#178);
#180=TOROIDAL_SURFACE('',#179,6.952414108511272,0.3);
#181=CARTESIAN_POINT('',(40.15210589672148,6.656261859032822,0.0));
#182=VERTEX_POINT('',#181);
#183=CARTESIAN_POINT('',(40.15210589672148,0.0,-8.151570E-016));
#184=DIRECTION('',(1.0,0.0,0.0));
#185=DIRECTION('',(0.0,-1.0,0.0));
#186=AXIS2_PLACEMENT_3D('',#183,#184,#185);
#187=CIRCLE('',#186,6.656261859032822);
#188=EDGE_CURVE('',#182,#182,#187,.T.);
#189=ORIENTED_EDGE('',*,*,#188,.T.);
#190=EDGE_LOOP('',(#189));
#191=FACE_OUTER_BOUND('',#190,.T.);
#192=CARTESIAN_POINT('',(40.500000000000007,6.952414108511272,-1.702850E-015));
#193=VERTEX_POINT('',#192);
#194=CARTESIAN_POINT('',(40.500000000000007,0.0,0.0));
#195=DIRECTION('',(-1.0,0.0,0.0));
#196=DIRECTION('',(0.0,-1.0,0.0));
#197=AXIS2_PLACEMENT_3D('',#194,#195,#196);
#198=CIRCLE('',#197,6.952414108511272);
#199=EDGE_CURVE('',#193,#193,#198,.T.);
#200=ORIENTED_EDGE('',*,*,#199,.T.);
#201=EDGE_LOOP('',(#200));
#202=FACE_BOUND('',#201,.T.);
#203=ADVANCED_FACE('',(#191,#202),#180,.F.);
#204=CARTESIAN_POINT('',(38.644955876366055,0.0,0.0));
#205=DIRECTION('',(-1.0,0.0,0.0));
#206=DIRECTION('',(0.0,1.0,0.0));
#207=AXIS2_PLACEMENT_3D('',#204,#205,#206);
#208=CONICAL_SURFACE('',#207,6.9,9.186408074497168);
#209=CARTESIAN_POINT('',(36.789911752732102,7.200000000000001,0.0));
#210=VERTEX_POINT('',#209);
#211=CARTESIAN_POINT('',(36.789911752732102,0.0,0.0));
#212=DIRECTION('',(1.0,0.0,0.0));
#213=DIRECTION('',(0.0,1.0,0.0));
#214=AXIS2_PLACEMENT_3D('',#211,#212,#213);
#215=CIRCLE('',#214,7.200000000000001);
#216=EDGE_CURVE('',#210,#210,#215,.T.);
#217=ORIENTED_EDGE('',*,*,#216,.T.);
#218=EDGE_LOOP('',(#217));
#219=FACE_OUTER_BOUND('',#218,.T.);
#220=ORIENTED_EDGE('',*,*,#188,.F.);
#221=EDGE_LOOP('',(#220));
#222=FACE_BOUND('',#221,.T.);
#223=ADVANCED_FACE('',(#219,#222),#208,.T.);
#224=CARTESIAN_POINT('',(40.500000000000007,6.77660322938398,0.0));
#225=DIRECTION('',(-1.0,0.0,0.0));
#226=DIRECTION('',(0.0,0.0,1.0));
#227=AXIS2_PLACEMENT_3D('',#224,#225,#226);
#228=PLANE('',#227);
#229=CARTESIAN_POINT('',(40.500000000000007,6.953206458767958,0.0));
#230=VERTEX_POINT('',#229);
#231=CARTESIAN_POINT('',(40.500000000000007,0.0,0.0));
#232=DIRECTION('',(1.0,0.0,0.0));
#233=DIRECTION('',(0.0,1.0,0.0));
#234=AXIS2_PLACEMENT_3D('',#231,#232,#233);
#235=CIRCLE('',#234,6.953206458767958);
#236=EDGE_CURVE('',#230,#230,#235,.T.);
#237=ORIENTED_EDGE('',*,*,#236,.F.);
#238=EDGE_LOOP('',(#237));
#239=FACE_OUTER_BOUND('',#238,.T.);
#240=ORIENTED_EDGE('',*,*,#199,.F.);
#241=EDGE_LOOP('',(#240));
#242=FACE_BOUND('',#241,.T.);
#243=ADVANCED_FACE('',(#239,#242),#228,.T.);
#244=CARTESIAN_POINT('',(36.200000000000003,0.0,0.0));
#245=DIRECTION('',(1.0,0.0,0.0));
#246=DIRECTION('',(0.0,0.0,-1.0));
#247=AXIS2_PLACEMENT_3D('',#244,#245,#246);
#248=TOROIDAL_SURFACE('',#247,6.850000000000001,0.3);
#249=CARTESIAN_POINT('',(36.200000000000003,6.550000000000001,0.0));
#250=VERTEX_POINT('',#249);
#251=CARTESIAN_POINT('',(36.200000000000003,0.0,0.0));
#252=DIRECTION('',(1.0,0.0,0.0));
#253=DIRECTION('',(0.0,-1.0,0.0));
#254=AXIS2_PLACEMENT_3D('',#251,#252,#253);
#255=CIRCLE('',#254,6.550000000000001);
#256=EDGE_CURVE('',#250,#250,#255,.T.);
#257=ORIENTED_EDGE('',*,*,#256,.T.);
#258=EDGE_LOOP('',(#257));
#259=FACE_OUTER_BOUND('',#258,.T.);
#260=CARTESIAN_POINT('',(36.5,6.850000000000001,-1.677766E-015));
#261=VERTEX_POINT('',#260);
#262=CARTESIAN_POINT('',(36.5,0.0,0.0));
#263=DIRECTION('',(-1.0,0.0,0.0));
#264=DIRECTION('',(0.0,-1.0,0.0));
#265=AXIS2_PLACEMENT_3D('',#262,#263,#264);
#266=CIRCLE('',#265,6.850000000000001);
#267=EDGE_CURVE('',#261,#261,#266,.T.);
#268=ORIENTED_EDGE('',*,*,#267,.T.);
#269=EDGE_LOOP('',(#268));
#270=FACE_BOUND('',#269,.T.);
#271=ADVANCED_FACE('',(#259,#270),#248,.F.);
#272=CARTESIAN_POINT('',(29.750000000000007,0.0,0.0));
#273=DIRECTION('',(1.0,0.0,0.0));
#274=DIRECTION('',(0.0,1.0,0.0));
#275=AXIS2_PLACEMENT_3D('',#272,#273,#274);
#276=CYLINDRICAL_SURFACE('',#275,6.550000000000001);
#277=CARTESIAN_POINT('',(23.70345523528302,6.550000000000001,-1.604287E-015));
#278=VERTEX_POINT('',#277);
#279=CARTESIAN_POINT('',(23.70345523528302,0.0,0.0));
#280=DIRECTION('',(-1.0,0.0,0.0));
#281=DIRECTION('',(0.0,-1.0,0.0));
#282=AXIS2_PLACEMENT_3D('',#279,#280,#281);
#283=CIRCLE('',#282,6.550000000000001);
#284=EDGE_CURVE('',#278,#278,#283,.T.);
#285=ORIENTED_EDGE('',*,*,#284,.F.);
#286=EDGE_LOOP('',(#285));
#287=FACE_OUTER_BOUND('',#286,.T.);
#288=ORIENTED_EDGE('',*,*,#256,.F.);
#289=EDGE_LOOP('',(#288));
#290=FACE_BOUND('',#289,.T.);
#291=ADVANCED_FACE('',(#287,#290),#276,.T.);
#292=CARTESIAN_POINT('',(36.5,6.75160322938398,0.0));
#293=DIRECTION('',(-1.0,0.0,0.0));
#294=DIRECTION('',(0.0,0.0,1.0));
#295=AXIS2_PLACEMENT_3D('',#292,#293,#294);
#296=PLANE('',#295);
#297=CARTESIAN_POINT('',(36.5,6.953206458767959,0.0));
#298=VERTEX_POINT('',#297);
#299=CARTESIAN_POINT('',(36.5,0.0,0.0));
#300=DIRECTION('',(1.0,0.0,0.0));
#301=DIRECTION('',(0.0,1.0,0.0));
#302=AXIS2_PLACEMENT_3D('',#299,#300,#301);
#303=CIRCLE('',#302,6.953206458767959);
#304=EDGE_CURVE('',#298,#298,#303,.T.);
#305=ORIENTED_EDGE('',*,*,#304,.F.);
#306=EDGE_LOOP('',(#305));
#307=FACE_OUTER_BOUND('',#306,.T.);
#308=ORIENTED_EDGE('',*,*,#267,.F.);
#309=EDGE_LOOP('',(#308));
#310=FACE_BOUND('',#309,.T.);
#311=ADVANCED_FACE('',(#307,#310),#296,.T.);
#312=CARTESIAN_POINT('',(23.70345523528302,0.0,0.0));
#313=DIRECTION('',(1.0,0.0,0.0));
#314=DIRECTION('',(0.0,0.0,-1.0));
#315=AXIS2_PLACEMENT_3D('',#312,#313,#314);
#316=TOROIDAL_SURFACE('',#315,7.55,1.0);
#317=CARTESIAN_POINT('',(22.852353008755557,7.025,0.0));
#318=VERTEX_POINT('',#317);
#319=CARTESIAN_POINT('',(22.852353008755557,0.0,0.0));
#320=DIRECTION('',(1.0,0.0,0.0));
#321=DIRECTION('',(0.0,-1.0,0.0));
#322=AXIS2_PLACEMENT_3D('',#319,#320,#321);
#323=CIRCLE('',#322,7.025);
#324=EDGE_CURVE('',#318,#318,#323,.T.);
#325=ORIENTED_EDGE('',*,*,#324,.T.);
#326=EDGE_LOOP('',(#325));
#327=FACE_OUTER_BOUND('',#326,.T.);
#328=ORIENTED_EDGE('',*,*,#284,.T.);
#329=EDGE_LOOP('',(#328));
#330=FACE_BOUND('',#329,.T.);
#331=ADVANCED_FACE('',(#327,#330),#316,.F.);
#332=CARTESIAN_POINT('',(22.001250782228098,0.0,0.0));
#333=DIRECTION('',(-1.0,0.0,0.0));
#334=DIRECTION('',(0.0,1.0,0.0));
#335=AXIS2_PLACEMENT_3D('',#332,#333,#334);
#336=TOROIDAL_SURFACE('',#335,6.5,1.0);
#337=ORIENTED_EDGE('',*,*,#324,.F.);
#338=EDGE_LOOP('',(#337));
#339=FACE_OUTER_BOUND('',#338,.T.);
#340=CARTESIAN_POINT('',(22.001250782228098,-7.5,1.413054E-017));
#341=VERTEX_POINT('',#340);
#342=CARTESIAN_POINT('',(22.001250782228098,0.0,0.0));
#343=DIRECTION('',(1.0,0.0,0.0));
#344=DIRECTION('',(0.0,1.0,0.0));
#345=AXIS2_PLACEMENT_3D('',#342,#343,#344);
#346=CIRCLE('',#345,7.5);
#347=EDGE_CURVE('',#341,#341,#346,.T.);
#348=ORIENTED_EDGE('',*,*,#347,.T.);
#349=EDGE_LOOP('',(#348));
#350=FACE_BOUND('',#349,.T.);
#351=ADVANCED_FACE('',(#339,#350),#336,.T.);
#352=CARTESIAN_POINT('',(16.550000000000004,0.0,0.0));
#353=DIRECTION('',(1.0,0.0,0.0));
#354=DIRECTION('',(0.0,1.0,0.0));
#355=AXIS2_PLACEMENT_3D('',#352,#353,#354);
#356=CYLINDRICAL_SURFACE('',#355,7.499999999999999);
#357=ORIENTED_EDGE('',*,*,#128,.T.);
#358=EDGE_LOOP('',(#357));
#359=FACE_OUTER_BOUND('',#358,.T.);
#360=ORIENTED_EDGE('',*,*,#347,.F.);
#361=EDGE_LOOP('',(#360));
#362=FACE_BOUND('',#361,.T.);
#363=ADVANCED_FACE('',(#359,#362),#356,.T.);
#364=CARTESIAN_POINT('',(1.0,0.0,0.0));
#365=DIRECTION('',(1.0,0.0,0.0));
#366=DIRECTION('',(0.0,0.0,-1.0));
#367=AXIS2_PLACEMENT_3D('',#364,#365,#366);
#368=TOROIDAL_SURFACE('',#367,5.5,1.0);
#369=CARTESIAN_POINT('',(-5.551115E-016,5.5,0.0));
#370=VERTEX_POINT('',#369);
#371=CARTESIAN_POINT('',(-5.551115E-016,0.0,0.0));
#372=DIRECTION('',(1.0,0.0,0.0));
#373=DIRECTION('',(0.0,-1.0,0.0));
#374=AXIS2_PLACEMENT_3D('',#371,#372,#373);
#375=CIRCLE('',#374,5.5);
#376=EDGE_CURVE('',#370,#370,#375,.T.);
#377=ORIENTED_EDGE('',*,*,#376,.T.);
#378=EDGE_LOOP('',(#377));
#379=FACE_OUTER_BOUND('',#378,.T.);
#380=CARTESIAN_POINT('',(1.0,6.5,-1.592041E-015));
#381=VERTEX_POINT('',#380);
#382=CARTESIAN_POINT('',(1.0,0.0,0.0));
#383=DIRECTION('',(-1.0,0.0,0.0));
#384=DIRECTION('',(0.0,-1.0,0.0));
#385=AXIS2_PLACEMENT_3D('',#382,#383,#384);
#386=CIRCLE('',#385,6.5);
#387=EDGE_CURVE('',#381,#381,#386,.T.);
#388=ORIENTED_EDGE('',*,*,#387,.T.);
#389=EDGE_LOOP('',(#388));
#390=FACE_BOUND('',#389,.T.);
#391=ADVANCED_FACE('',(#379,#390),#368,.T.);
#392=CARTESIAN_POINT('',(2.124999999999999,0.0,0.0));
#393=DIRECTION('',(1.0,0.0,0.0));
#394=DIRECTION('',(0.0,1.0,0.0));
#395=AXIS2_PLACEMENT_3D('',#392,#393,#394);
#396=CYLINDRICAL_SURFACE('',#395,6.5);
#397=CARTESIAN_POINT('',(4.249999999999999,6.500000000000002,0.0));
#398=VERTEX_POINT('',#397);
#399=CARTESIAN_POINT('',(4.249999999999999,0.0,0.0));
#400=DIRECTION('',(1.0,0.0,0.0));
#401=DIRECTION('',(0.0,1.0,0.0));
#402=AXIS2_PLACEMENT_3D('',#399,#400,#401);
#403=CIRCLE('',#402,6.500000000000002);
#404=EDGE_CURVE('',#398,#398,#403,.T.);
#405=ORIENTED_EDGE('',*,*,#404,.F.);
#406=EDGE_LOOP('',(#405));
#407=FACE_OUTER_BOUND('',#406,.T.);
#408=ORIENTED_EDGE('',*,*,#387,.F.);
#409=EDGE_LOOP('',(#408));
#410=FACE_BOUND('',#409,.T.);
#411=ADVANCED_FACE('',(#407,#410),#396,.T.);
#412=CARTESIAN_POINT('',(-5.970153E-016,5.749999999999997,0.0));
#413=DIRECTION('',(-1.0,0.0,0.0));
#414=DIRECTION('',(0.0,0.0,1.0));
#415=AXIS2_PLACEMENT_3D('',#412,#413,#414);
#416=PLANE('',#415);
#417=ORIENTED_EDGE('',*,*,#376,.F.);
#418=EDGE_LOOP('',(#417));
#419=FACE_OUTER_BOUND('',#418,.T.);
#420=CARTESIAN_POINT('',(0.0,4.999999999999996,0.0));
#421=VERTEX_POINT('',#420);
#422=CARTESIAN_POINT('',(0.0,0.0,0.0));
#423=DIRECTION('',(1.0,0.0,0.0));
#424=DIRECTION('',(0.0,1.0,0.0));
#425=AXIS2_PLACEMENT_3D('',#422,#423,#424);
#426=CIRCLE('',#425,4.999999999999996);
#427=EDGE_CURVE('',#421,#421,#426,.T.);
#428=ORIENTED_EDGE('',*,*,#427,.T.);
#429=EDGE_LOOP('',(#428));
#430=FACE_BOUND('',#429,.T.);
#431=ADVANCED_FACE('',(#419,#430),#416,.T.);
#432=CARTESIAN_POINT('',(4.749999999999998,0.0,0.0));
#433=DIRECTION('',(1.0,0.0,0.0));
#434=DIRECTION('',(0.0,1.0,0.0));
#435=AXIS2_PLACEMENT_3D('',#432,#433,#434);
#436=CONICAL_SURFACE('',#435,7.0,44.999999999999964);
#437=CARTESIAN_POINT('',(5.249999999999996,7.499999999999998,0.0));
#438=VERTEX_POINT('',#437);
#439=CARTESIAN_POINT('',(5.249999999999996,0.0,0.0));
#440=DIRECTION('',(1.0,0.0,0.0));
#441=DIRECTION('',(0.0,1.0,0.0));
#442=AXIS2_PLACEMENT_3D('',#439,#440,#441);
#443=CIRCLE('',#442,7.499999999999998);
#444=EDGE_CURVE('',#438,#438,#443,.T.);
#445=ORIENTED_EDGE('',*,*,#444,.F.);
#446=EDGE_LOOP('',(#445));
#447=FACE_OUTER_BOUND('',#446,.T.);
#448=ORIENTED_EDGE('',*,*,#404,.T.);
#449=EDGE_LOOP('',(#448));
#450=FACE_BOUND('',#449,.T.);
#451=ADVANCED_FACE('',(#447,#450),#436,.T.);
#452=CARTESIAN_POINT('',(5.649999999999997,0.0,0.0));
#453=DIRECTION('',(1.0,0.0,0.0));
#454=DIRECTION('',(0.0,1.0,0.0));
#455=AXIS2_PLACEMENT_3D('',#452,#453,#454);
#456=CYLINDRICAL_SURFACE('',#455,7.499999999999999);
#457=ORIENTED_EDGE('',*,*,#168,.F.);
#458=EDGE_LOOP('',(#457));
#459=FACE_OUTER_BOUND('',#458,.T.);
#460=ORIENTED_EDGE('',*,*,#444,.T.);
#461=EDGE_LOOP('',(#460));
#462=FACE_BOUND('',#461,.T.);
#463=ADVANCED_FACE('',(#459,#462),#456,.T.);
#464=CARTESIAN_POINT('',(36.75,0.0,0.0));
#465=DIRECTION('',(1.0,0.0,0.0));
#466=DIRECTION('',(0.0,0.0,-1.0));
#467=AXIS2_PLACEMENT_3D('',#464,#465,#466);
#468=TOROIDAL_SURFACE('',#467,6.953206458767959,0.249999999999999);
#469=ORIENTED_EDGE('',*,*,#216,.F.);
#470=EDGE_LOOP('',(#469));
#471=FACE_OUTER_BOUND('',#470,.T.);
#472=ORIENTED_EDGE('',*,*,#304,.T.);
#473=EDGE_LOOP('',(#472));
#474=FACE_BOUND('',#473,.T.);
#475=ADVANCED_FACE('',(#471,#474),#468,.T.);
#476=CARTESIAN_POINT('',(40.750000000000014,0.0,0.0));
#477=DIRECTION('',(1.0,0.0,0.0));
#478=DIRECTION('',(0.0,0.0,-1.0));
#479=AXIS2_PLACEMENT_3D('',#476,#477,#478);
#480=TOROIDAL_SURFACE('',#479,6.953206458767958,0.249999999999999);
#481=CARTESIAN_POINT('',(40.78991175273211,7.199999999999999,0.0));
#482=VERTEX_POINT('',#481);
#483=CARTESIAN_POINT('',(40.78991175273211,0.0,0.0));
#484=DIRECTION('',(1.0,0.0,0.0));
#485=DIRECTION('',(0.0,1.0,0.0));
#486=AXIS2_PLACEMENT_3D('',#483,#484,#485);
#487=CIRCLE('',#486,7.199999999999999);
#488=EDGE_CURVE('',#482,#482,#487,.T.);
#489=ORIENTED_EDGE('',*,*,#488,.F.);
#490=EDGE_LOOP('',(#489));
#491=FACE_OUTER_BOUND('',#490,.T.);
#492=ORIENTED_EDGE('',*,*,#236,.T.);
#493=EDGE_LOOP('',(#492));
#494=FACE_BOUND('',#493,.T.);
#495=ADVANCED_FACE('',(#491,#494),#480,.T.);
#496=CARTESIAN_POINT('',(42.644955876366062,0.0,0.0));
#497=DIRECTION('',(-1.0,0.0,0.0));
#498=DIRECTION('',(0.0,1.0,0.0));
#499=AXIS2_PLACEMENT_3D('',#496,#497,#498);
#500=CONICAL_SURFACE('',#499,6.9,9.186408074497171);
#501=CARTESIAN_POINT('',(44.500000000000014,6.600000000000001,0.0));
#502=VERTEX_POINT('',#501);
#503=CARTESIAN_POINT('',(44.500000000000014,0.0,0.0));
#504=DIRECTION('',(1.0,0.0,0.0));
#505=DIRECTION('',(0.0,1.0,0.0));
#506=AXIS2_PLACEMENT_3D('',#503,#504,#505);
#507=CIRCLE('',#506,6.600000000000001);
#508=EDGE_CURVE('',#502,#502,#507,.T.);
#509=ORIENTED_EDGE('',*,*,#508,.F.);
#510=EDGE_LOOP('',(#509));
#511=FACE_OUTER_BOUND('',#510,.T.);
#512=ORIENTED_EDGE('',*,*,#488,.T.);
#513=EDGE_LOOP('',(#512));
#514=FACE_BOUND('',#513,.T.);
#515=ADVANCED_FACE('',(#511,#514),#500,.T.);
#516=CARTESIAN_POINT('',(46.124807680927205,0.0,0.0));
#517=DIRECTION('',(1.0,0.0,0.0));
#518=DIRECTION('',(0.0,0.0,-1.0));
#519=AXIS2_PLACEMENT_3D('',#516,#517,#518);
#520=TOROIDAL_SURFACE('',#519,4.699999999999997,2.500000000000004);
#521=CARTESIAN_POINT('',(48.000000000000014,6.353376474518235,0.0));
#522=VERTEX_POINT('',#521);
#523=CARTESIAN_POINT('',(48.000000000000014,0.0,0.0));
#524=DIRECTION('',(1.0,0.0,0.0));
#525=DIRECTION('',(0.0,1.0,0.0));
#526=AXIS2_PLACEMENT_3D('',#523,#524,#525);
#527=CIRCLE('',#526,6.353376474518235);
#528=EDGE_CURVE('',#522,#522,#527,.T.);
#529=ORIENTED_EDGE('',*,*,#528,.F.);
#530=EDGE_LOOP('',(#529));
#531=FACE_OUTER_BOUND('',#530,.T.);
#532=ORIENTED_EDGE('',*,*,#508,.T.);
#533=EDGE_LOOP('',(#532));
#534=FACE_BOUND('',#533,.T.);
#535=ADVANCED_FACE('',(#531,#534),#520,.T.);
#536=CARTESIAN_POINT('',(48.000000000000007,5.676688237259125,0.0));
#537=DIRECTION('',(1.0,0.0,0.0));
#538=DIRECTION('',(0.0,0.0,-1.0));
#539=AXIS2_PLACEMENT_3D('',#536,#537,#538);
#540=PLANE('',#539);
#541=ORIENTED_EDGE('',*,*,#528,.T.);
#542=EDGE_LOOP('',(#541));
#543=FACE_OUTER_BOUND('',#542,.T.);
#544=CARTESIAN_POINT('',(48.000000000000007,5.000000000000013,0.0));
#545=VERTEX_POINT('',#544);
#546=CARTESIAN_POINT('',(48.000000000000007,0.0,0.0));
#547=DIRECTION('',(1.0,0.0,0.0));
#548=DIRECTION('',(0.0,1.0,0.0));
#549=AXIS2_PLACEMENT_3D('',#546,#547,#548);
#550=CIRCLE('',#549,5.000000000000013);
#551=EDGE_CURVE('',#545,#545,#550,.T.);
#552=ORIENTED_EDGE('',*,*,#551,.F.);
#553=EDGE_LOOP('',(#552));
#554=FACE_BOUND('',#553,.T.);
#555=ADVANCED_FACE('',(#543,#554),#540,.T.);
#556=CARTESIAN_POINT('',(24.000000000000004,0.0,0.0));
#557=DIRECTION('',(1.0,0.0,0.0));
#558=DIRECTION('',(0.0,1.0,0.0));
#559=AXIS2_PLACEMENT_3D('',#556,#557,#558);
#560=CYLINDRICAL_SURFACE('',#559,5.000000000000004);
#561=ORIENTED_EDGE('',*,*,#427,.F.);
#562=EDGE_LOOP('',(#561));
#563=FACE_OUTER_BOUND('',#562,.T.);
#564=ORIENTED_EDGE('',*,*,#551,.T.);
#565=EDGE_LOOP('',(#564));
#566=FACE_BOUND('',#565,.T.);
#567=ADVANCED_FACE('',(#563,#566),#560,.F.);
#568=CLOSED_SHELL('',(#95,#115,#135,#155,#175,#203,#223,#243,#271,#291,#311,#331,#351,#363,#391,#411,#431,#451,#463,#475,#495,#515,#535,#555,#567));
#569=MANIFOLD_SOLID_BREP('Volumenk\S\vrper1',#568);
#570=COLOUR_RGB('Steel',0.878431379795074,0.874509811401367,0.858823537826538);
#571=FILL_AREA_STYLE_COLOUR('Steel',#570);
#572=FILL_AREA_STYLE('Steel',(#571));
#573=SURFACE_STYLE_FILL_AREA(#572);
#574=SURFACE_SIDE_STYLE('Steel',(#573));
#575=SURFACE_STYLE_USAGE(.BOTH.,#574);
#576=PRESENTATION_STYLE_ASSIGNMENT((#575));
#577=STYLED_ITEM('',(#576),#569);
#578=MECHANICAL_DESIGN_GEOMETRIC_PRESENTATION_REPRESENTATION('',(#577),#36);
#579=ADVANCED_BREP_SHAPE_REPRESENTATION('ABSR',(#569),#36);
#580=SHAPE_REPRESENTATION_RELATIONSHIP('SRR','None',#579,#41);
ENDSEC;
END-ISO-10303-21;
