ISO-10303-21;
HEADER;
FILE_DESCRIPTION(('STEP AP214'),'1');
FILE_NAME('C:/PartsXMLTools/RobotParts/Generated/STEP_SAT/CAD/Temp/0127_10_00.stp','2016-07-07T14:22:30',('TraceParts'),('TraceParts S.A.'),'Spatial InterOp 3D',' ',' ');
FILE_SCHEMA(('automotive_design'));
ENDSEC;
DATA;
#1=PRODUCT_DEFINITION_CONTEXT('',#9,'design');
#2=APPLICATION_PROTOCOL_DEFINITION('INTERNATIONAL STANDARD','automotive_design',1994,#9);
#3=PRODUCT_CATEGORY_RELATIONSHIP('NONE','NONE',#10,#11);
#4=SHAPE_DEFINITION_REPRESENTATION(#12,#13);
#5= (GEOMETRIC_REPRESENTATION_CONTEXT(3)GLOBAL_UNCERTAINTY_ASSIGNED_CONTEXT((#16))GLOBAL_UNIT_ASSIGNED_CONTEXT((#18,#19,#20))REPRESENTATION_CONTEXT('NONE','WORKSPACE'));
#9=APPLICATION_CONTEXT(' ');
#10=PRODUCT_CATEGORY('part','NONE');
#11=PRODUCT_RELATED_PRODUCT_CATEGORY('detail',' ',(#22));
#12=PRODUCT_DEFINITION_SHAPE('NONE','NONE',#23);
#13=ADVANCED_BREP_SHAPE_REPRESENTATION('0127-10-00',(#24,#25),#5);
#16=UNCERTAINTY_MEASURE_WITH_UNIT(LENGTH_MEASURE(1.0E-006),#18,'','');
#18= (CONVERSION_BASED_UNIT('MILLIMETRE',#28)LENGTH_UNIT()NAMED_UNIT(#31));
#19= (NAMED_UNIT(#33)PLANE_ANGLE_UNIT()SI_UNIT($,.RADIAN.));
#20= (NAMED_UNIT(#33)SOLID_ANGLE_UNIT()SI_UNIT($,.STERADIAN.));
#22=PRODUCT('0127-10-00','0127-10-00','PART-0127-10-00-DESC',(#39));
#23=PRODUCT_DEFINITION('NONE','NONE',#40,#1);
#24=MANIFOLD_SOLID_BREP('0127-10-00',#41);
#25=AXIS2_PLACEMENT_3D('',#42,#43,#44);
#28=LENGTH_MEASURE_WITH_UNIT(LENGTH_MEASURE(1.0),#45);
#31=DIMENSIONAL_EXPONENTS(1.0,0.0,0.0,0.0,0.0,0.0,0.0);
#33=DIMENSIONAL_EXPONENTS(0.0,0.0,0.0,0.0,0.0,0.0,0.0);
#39=PRODUCT_CONTEXT('',#9,'mechanical');
#40=PRODUCT_DEFINITION_FORMATION_WITH_SPECIFIED_SOURCE(' ','NONE',#22,.NOT_KNOWN.);
#41=CLOSED_SHELL('',(#46,#47,#48,#49,#50,#51,#52,#53,#54,#55,#56,#57,#58,#59,#60,#61,#62,#63,#64,#65,#66,#67,#68));
#42=CARTESIAN_POINT('',(0.0,0.0,0.0));
#43=DIRECTION('',(0.0,0.0,1.0));
#44=DIRECTION('',(1.0,0.0,0.0));
#45= (NAMED_UNIT(#31)LENGTH_UNIT()SI_UNIT(.MILLI.,.METRE.));
#46=ADVANCED_FACE('',(#70),#71,.T.);
#47=ADVANCED_FACE('',(#72),#73,.T.);
#48=ADVANCED_FACE('',(#74),#75,.T.);
#49=ADVANCED_FACE('',(#76),#77,.T.);
#50=ADVANCED_FACE('',(#78),#79,.T.);
#51=ADVANCED_FACE('',(#80),#81,.T.);
#52=ADVANCED_FACE('',(#82,#83),#84,.T.);
#53=ADVANCED_FACE('',(#85),#86,.F.);
#54=ADVANCED_FACE('',(#87),#88,.F.);
#55=ADVANCED_FACE('',(#89),#90,.T.);
#56=ADVANCED_FACE('',(#91),#92,.T.);
#57=ADVANCED_FACE('',(#93),#94,.T.);
#58=ADVANCED_FACE('',(#95),#96,.T.);
#59=ADVANCED_FACE('',(#97),#98,.T.);
#60=ADVANCED_FACE('',(#99),#100,.T.);
#61=ADVANCED_FACE('',(#101),#102,.T.);
#62=ADVANCED_FACE('',(#103),#104,.F.);
#63=ADVANCED_FACE('',(#105),#106,.F.);
#64=ADVANCED_FACE('',(#107),#108,.T.);
#65=ADVANCED_FACE('',(#109),#110,.T.);
#66=ADVANCED_FACE('',(#111),#112,.T.);
#67=ADVANCED_FACE('',(#113),#114,.T.);
#68=ADVANCED_FACE('',(#115),#116,.T.);
#70=FACE_OUTER_BOUND('',#117,.T.);
#71=TOROIDAL_SURFACE('',#118,3.725,0.2);
#72=FACE_OUTER_BOUND('',#119,.T.);
#73=TOROIDAL_SURFACE('',#120,3.725,0.2);
#74=FACE_OUTER_BOUND('',#121,.T.);
#75=TOROIDAL_SURFACE('',#122,4.15,0.1);
#76=FACE_OUTER_BOUND('',#123,.T.);
#77=TOROIDAL_SURFACE('',#124,4.15,0.1);
#78=FACE_OUTER_BOUND('',#125,.T.);
#79=TOROIDAL_SURFACE('',#126,4.15,0.1);
#80=FACE_OUTER_BOUND('',#127,.T.);
#81=TOROIDAL_SURFACE('',#128,4.15,0.1);
#82=FACE_OUTER_BOUND('',#129,.T.);
#83=FACE_BOUND('',#130,.T.);
#84=PLANE('',#131);
#85=FACE_OUTER_BOUND('',#132,.T.);
#86=CYLINDRICAL_SURFACE('',#133,3.65);
#87=FACE_OUTER_BOUND('',#134,.T.);
#88=CYLINDRICAL_SURFACE('',#135,3.65);
#89=FACE_OUTER_BOUND('',#136,.T.);
#90=TOROIDAL_SURFACE('',#137,4.225,0.575);
#91=FACE_OUTER_BOUND('',#138,.T.);
#92=TOROIDAL_SURFACE('',#139,4.15,0.1);
#93=FACE_OUTER_BOUND('',#140,.T.);
#94=CYLINDRICAL_SURFACE('',#141,4.25);
#95=FACE_OUTER_BOUND('',#142,.T.);
#96=CYLINDRICAL_SURFACE('',#143,4.25);
#97=FACE_OUTER_BOUND('',#144,.T.);
#98=TOROIDAL_SURFACE('',#145,4.15,0.1);
#99=FACE_OUTER_BOUND('',#146,.T.);
#100=TOROIDAL_SURFACE('',#147,4.225,0.575);
#101=FACE_OUTER_BOUND('',#148,.T.);
#102=TOROIDAL_SURFACE('',#149,4.15,0.1);
#103=FACE_OUTER_BOUND('',#150,.T.);
#104=TOROIDAL_SURFACE('',#151,4.225,0.3);
#105=FACE_OUTER_BOUND('',#152,.T.);
#106=TOROIDAL_SURFACE('',#153,4.225,0.3);
#107=FACE_OUTER_BOUND('',#154,.T.);
#108=TOROIDAL_SURFACE('',#155,4.15,0.1);
#109=FACE_OUTER_BOUND('',#156,.T.);
#110=CYLINDRICAL_SURFACE('',#157,3.925);
#111=FACE_OUTER_BOUND('',#158,.T.);
#112=TOROIDAL_SURFACE('',#159,3.725,0.2);
#113=FACE_OUTER_BOUND('',#160,.T.);
#114=TOROIDAL_SURFACE('',#161,3.725,0.2);
#115=FACE_OUTER_BOUND('',#162,.T.);
#116=CYLINDRICAL_SURFACE('',#163,3.925);
#117=EDGE_LOOP('',(#164,#165,#166,#167));
#118=AXIS2_PLACEMENT_3D('',#168,#169,#170);
#119=EDGE_LOOP('',(#171,#172,#173,#174));
#120=AXIS2_PLACEMENT_3D('',#175,#176,#177);
#121=EDGE_LOOP('',(#178,#179,#180,#181));
#122=AXIS2_PLACEMENT_3D('',#182,#183,#184);
#123=EDGE_LOOP('',(#185,#186,#187,#188));
#124=AXIS2_PLACEMENT_3D('',#189,#190,#191);
#125=EDGE_LOOP('',(#192,#193,#194,#195));
#126=AXIS2_PLACEMENT_3D('',#196,#197,#198);
#127=EDGE_LOOP('',(#199,#200,#201,#202));
#128=AXIS2_PLACEMENT_3D('',#203,#204,#205);
#129=EDGE_LOOP('',(#206,#207,#208,#209));
#130=EDGE_LOOP('',(#210,#211));
#131=AXIS2_PLACEMENT_3D('',#212,#213,#214);
#132=EDGE_LOOP('',(#215,#216,#217,#218));
#133=AXIS2_PLACEMENT_3D('',#219,#220,#221);
#134=EDGE_LOOP('',(#222,#223,#224,#225));
#135=AXIS2_PLACEMENT_3D('',#226,#227,#228);
#136=EDGE_LOOP('',(#229,#230,#231,#232,#233));
#137=AXIS2_PLACEMENT_3D('',#234,#235,#236);
#138=EDGE_LOOP('',(#237,#238,#239,#240));
#139=AXIS2_PLACEMENT_3D('',#241,#242,#243);
#140=EDGE_LOOP('',(#244,#245,#246,#247,#248,#249));
#141=AXIS2_PLACEMENT_3D('',#250,#251,#252);
#142=EDGE_LOOP('',(#253,#254,#255,#256,#257,#258));
#143=AXIS2_PLACEMENT_3D('',#259,#260,#261);
#144=EDGE_LOOP('',(#262,#263,#264,#265));
#145=AXIS2_PLACEMENT_3D('',#266,#267,#268);
#146=EDGE_LOOP('',(#269,#270,#271,#272,#273));
#147=AXIS2_PLACEMENT_3D('',#274,#275,#276);
#148=EDGE_LOOP('',(#277,#278,#279,#280));
#149=AXIS2_PLACEMENT_3D('',#281,#282,#283);
#150=EDGE_LOOP('',(#284,#285,#286,#287,#288));
#151=AXIS2_PLACEMENT_3D('',#289,#290,#291);
#152=EDGE_LOOP('',(#292,#293,#294,#295,#296));
#153=AXIS2_PLACEMENT_3D('',#297,#298,#299);
#154=EDGE_LOOP('',(#300,#301,#302,#303));
#155=AXIS2_PLACEMENT_3D('',#304,#305,#306);
#156=EDGE_LOOP('',(#307,#308,#309,#310,#311));
#157=AXIS2_PLACEMENT_3D('',#312,#313,#314);
#158=EDGE_LOOP('',(#315,#316,#317,#318));
#159=AXIS2_PLACEMENT_3D('',#319,#320,#321);
#160=EDGE_LOOP('',(#322,#323,#324,#325));
#161=AXIS2_PLACEMENT_3D('',#326,#327,#328);
#162=EDGE_LOOP('',(#329,#330,#331,#332,#333));
#163=AXIS2_PLACEMENT_3D('',#334,#335,#336);
#164=ORIENTED_EDGE('',*,*,#337,.F.);
#165=ORIENTED_EDGE('',*,*,#338,.F.);
#166=ORIENTED_EDGE('',*,*,#339,.T.);
#167=ORIENTED_EDGE('',*,*,#340,.T.);
#168=CARTESIAN_POINT('',(-0.2,0.0,0.0));
#169=DIRECTION('',(1.0,0.0,0.0));
#170=DIRECTION('',(0.0,0.99996403921889,-0.00848058188114691));
#171=ORIENTED_EDGE('',*,*,#341,.F.);
#172=ORIENTED_EDGE('',*,*,#342,.F.);
#173=ORIENTED_EDGE('',*,*,#343,.T.);
#174=ORIENTED_EDGE('',*,*,#344,.T.);
#175=CARTESIAN_POINT('',(-0.2,0.0,0.0));
#176=DIRECTION('',(1.0,0.0,0.0));
#177=DIRECTION('',(0.0,-0.99996403921889,0.00848058188114591));
#178=ORIENTED_EDGE('',*,*,#345,.F.);
#179=ORIENTED_EDGE('',*,*,#346,.F.);
#180=ORIENTED_EDGE('',*,*,#347,.T.);
#181=ORIENTED_EDGE('',*,*,#348,.T.);
#182=CARTESIAN_POINT('',(-17.81790584114,0.0,0.0));
#183=DIRECTION('',(1.0,0.0,0.0));
#184=DIRECTION('',(0.0,-0.999969328786331,0.00783208060576024));
#185=ORIENTED_EDGE('',*,*,#349,.F.);
#186=ORIENTED_EDGE('',*,*,#350,.F.);
#187=ORIENTED_EDGE('',*,*,#351,.T.);
#188=ORIENTED_EDGE('',*,*,#352,.T.);
#189=CARTESIAN_POINT('',(-17.81790584114,0.0,0.0));
#190=DIRECTION('',(1.0,0.0,0.0));
#191=DIRECTION('',(0.0,0.999969328786331,-0.00783208060576024));
#192=ORIENTED_EDGE('',*,*,#353,.F.);
#193=ORIENTED_EDGE('',*,*,#354,.F.);
#194=ORIENTED_EDGE('',*,*,#355,.T.);
#195=ORIENTED_EDGE('',*,*,#356,.T.);
#196=CARTESIAN_POINT('',(-17.89404157598,0.0,0.0));
#197=DIRECTION('',(1.0,0.0,0.0));
#198=DIRECTION('',(0.0,0.999966299009205,-0.00820980181444705));
#199=ORIENTED_EDGE('',*,*,#357,.F.);
#200=ORIENTED_EDGE('',*,*,#358,.F.);
#201=ORIENTED_EDGE('',*,*,#359,.T.);
#202=ORIENTED_EDGE('',*,*,#360,.T.);
#203=CARTESIAN_POINT('',(-17.89404157598,0.0,0.0));
#204=DIRECTION('',(1.0,0.0,0.0));
#205=DIRECTION('',(0.0,-0.999966299009205,0.00820980181444705));
#206=ORIENTED_EDGE('',*,*,#342,.T.);
#207=ORIENTED_EDGE('',*,*,#361,.T.);
#208=ORIENTED_EDGE('',*,*,#338,.T.);
#209=ORIENTED_EDGE('',*,*,#362,.T.);
#210=ORIENTED_EDGE('',*,*,#363,.F.);
#211=ORIENTED_EDGE('',*,*,#364,.T.);
#212=CARTESIAN_POINT('',(0.0,0.0,0.0));
#213=DIRECTION('',(1.0,0.0,0.0));
#214=DIRECTION('',(0.0,1.0,-0.0));
#215=ORIENTED_EDGE('',*,*,#365,.T.);
#216=ORIENTED_EDGE('',*,*,#366,.F.);
#217=ORIENTED_EDGE('',*,*,#364,.F.);
#218=ORIENTED_EDGE('',*,*,#367,.T.);
#219=CARTESIAN_POINT('',(-18.9,0.0,0.0));
#220=DIRECTION('',(-1.0,-0.0,0.0));
#221=DIRECTION('',(0.0,-1.0,0.0));
#222=ORIENTED_EDGE('',*,*,#363,.T.);
#223=ORIENTED_EDGE('',*,*,#366,.T.);
#224=ORIENTED_EDGE('',*,*,#368,.F.);
#225=ORIENTED_EDGE('',*,*,#367,.F.);
#226=CARTESIAN_POINT('',(-18.9,0.0,0.0));
#227=DIRECTION('',(-1.0,-0.0,0.0));
#228=DIRECTION('',(0.0,-1.0,0.0));
#229=ORIENTED_EDGE('',*,*,#369,.F.);
#230=ORIENTED_EDGE('',*,*,#368,.T.);
#231=ORIENTED_EDGE('',*,*,#370,.T.);
#232=ORIENTED_EDGE('',*,*,#371,.F.);
#233=ORIENTED_EDGE('',*,*,#360,.F.);
#234=CARTESIAN_POINT('',(-17.425,0.0,0.0));
#235=DIRECTION('',(1.0,0.0,0.0));
#236=DIRECTION('',(0.0,-1.0,0.0));
#237=ORIENTED_EDGE('',*,*,#357,.T.);
#238=ORIENTED_EDGE('',*,*,#371,.T.);
#239=ORIENTED_EDGE('',*,*,#355,.F.);
#240=ORIENTED_EDGE('',*,*,#372,.F.);
#241=CARTESIAN_POINT('',(-17.89404157598,0.0,0.0));
#242=DIRECTION('',(1.0,0.0,0.0));
#243=DIRECTION('',(0.0,-0.999966299009205,0.00820980181444705));
#244=ORIENTED_EDGE('',*,*,#358,.T.);
#245=ORIENTED_EDGE('',*,*,#372,.T.);
#246=ORIENTED_EDGE('',*,*,#373,.T.);
#247=ORIENTED_EDGE('',*,*,#374,.F.);
#248=ORIENTED_EDGE('',*,*,#348,.F.);
#249=ORIENTED_EDGE('',*,*,#375,.F.);
#250=CARTESIAN_POINT('',(-18.9,0.0,0.0));
#251=DIRECTION('',(-1.0,-0.0,0.0));
#252=DIRECTION('',(0.0,-1.0,0.0));
#253=ORIENTED_EDGE('',*,*,#352,.F.);
#254=ORIENTED_EDGE('',*,*,#373,.F.);
#255=ORIENTED_EDGE('',*,*,#354,.T.);
#256=ORIENTED_EDGE('',*,*,#376,.T.);
#257=ORIENTED_EDGE('',*,*,#375,.T.);
#258=ORIENTED_EDGE('',*,*,#377,.F.);
#259=CARTESIAN_POINT('',(-18.9,0.0,0.0));
#260=DIRECTION('',(-1.0,-0.0,0.0));
#261=DIRECTION('',(0.0,-1.0,0.0));
#262=ORIENTED_EDGE('',*,*,#353,.T.);
#263=ORIENTED_EDGE('',*,*,#378,.T.);
#264=ORIENTED_EDGE('',*,*,#359,.F.);
#265=ORIENTED_EDGE('',*,*,#376,.F.);
#266=CARTESIAN_POINT('',(-17.89404157598,0.0,0.0));
#267=DIRECTION('',(1.0,0.0,0.0));
#268=DIRECTION('',(0.0,0.999966299009205,-0.00820980181444705));
#269=ORIENTED_EDGE('',*,*,#370,.F.);
#270=ORIENTED_EDGE('',*,*,#365,.F.);
#271=ORIENTED_EDGE('',*,*,#369,.T.);
#272=ORIENTED_EDGE('',*,*,#378,.F.);
#273=ORIENTED_EDGE('',*,*,#356,.F.);
#274=CARTESIAN_POINT('',(-17.425,0.0,0.0));
#275=DIRECTION('',(1.0,0.0,0.0));
#276=DIRECTION('',(0.0,-1.0,0.0));
#277=ORIENTED_EDGE('',*,*,#349,.T.);
#278=ORIENTED_EDGE('',*,*,#377,.T.);
#279=ORIENTED_EDGE('',*,*,#347,.F.);
#280=ORIENTED_EDGE('',*,*,#379,.F.);
#281=CARTESIAN_POINT('',(-17.81790584114,0.0,0.0));
#282=DIRECTION('',(1.0,0.0,0.0));
#283=DIRECTION('',(0.0,0.999969328786331,-0.00783208060576024));
#284=ORIENTED_EDGE('',*,*,#380,.T.);
#285=ORIENTED_EDGE('',*,*,#381,.T.);
#286=ORIENTED_EDGE('',*,*,#382,.F.);
#287=ORIENTED_EDGE('',*,*,#350,.T.);
#288=ORIENTED_EDGE('',*,*,#379,.T.);
#289=CARTESIAN_POINT('',(-17.425,0.0,0.0));
#290=DIRECTION('',(1.0,0.0,0.0));
#291=DIRECTION('',(0.0,-1.0,0.0));
#292=ORIENTED_EDGE('',*,*,#382,.T.);
#293=ORIENTED_EDGE('',*,*,#383,.F.);
#294=ORIENTED_EDGE('',*,*,#380,.F.);
#295=ORIENTED_EDGE('',*,*,#346,.T.);
#296=ORIENTED_EDGE('',*,*,#384,.T.);
#297=CARTESIAN_POINT('',(-17.425,0.0,0.0));
#298=DIRECTION('',(1.0,0.0,0.0));
#299=DIRECTION('',(0.0,-1.0,0.0));
#300=ORIENTED_EDGE('',*,*,#345,.T.);
#301=ORIENTED_EDGE('',*,*,#374,.T.);
#302=ORIENTED_EDGE('',*,*,#351,.F.);
#303=ORIENTED_EDGE('',*,*,#384,.F.);
#304=CARTESIAN_POINT('',(-17.81790584114,0.0,0.0));
#305=DIRECTION('',(1.0,0.0,0.0));
#306=DIRECTION('',(0.0,-0.999969328786331,0.00783208060576024));
#307=ORIENTED_EDGE('',*,*,#385,.F.);
#308=ORIENTED_EDGE('',*,*,#383,.T.);
#309=ORIENTED_EDGE('',*,*,#386,.T.);
#310=ORIENTED_EDGE('',*,*,#387,.F.);
#311=ORIENTED_EDGE('',*,*,#344,.F.);
#312=CARTESIAN_POINT('',(-18.9,0.0,0.0));
#313=DIRECTION('',(-1.0,-0.0,0.0));
#314=DIRECTION('',(0.0,-1.0,0.0));
#315=ORIENTED_EDGE('',*,*,#341,.T.);
#316=ORIENTED_EDGE('',*,*,#387,.T.);
#317=ORIENTED_EDGE('',*,*,#339,.F.);
#318=ORIENTED_EDGE('',*,*,#361,.F.);
#319=CARTESIAN_POINT('',(-0.2,0.0,0.0));
#320=DIRECTION('',(1.0,0.0,0.0));
#321=DIRECTION('',(0.0,-0.99996403921889,0.00848058188114591));
#322=ORIENTED_EDGE('',*,*,#337,.T.);
#323=ORIENTED_EDGE('',*,*,#388,.T.);
#324=ORIENTED_EDGE('',*,*,#343,.F.);
#325=ORIENTED_EDGE('',*,*,#362,.F.);
#326=CARTESIAN_POINT('',(-0.2,0.0,0.0));
#327=DIRECTION('',(1.0,0.0,0.0));
#328=DIRECTION('',(0.0,0.99996403921889,-0.00848058188114691));
#329=ORIENTED_EDGE('',*,*,#386,.F.);
#330=ORIENTED_EDGE('',*,*,#381,.F.);
#331=ORIENTED_EDGE('',*,*,#385,.T.);
#332=ORIENTED_EDGE('',*,*,#388,.F.);
#333=ORIENTED_EDGE('',*,*,#340,.F.);
#334=CARTESIAN_POINT('',(-18.9,0.0,0.0));
#335=DIRECTION('',(-1.0,-0.0,0.0));
#336=DIRECTION('',(0.0,-1.0,0.0));
#337=EDGE_CURVE('',#389,#390,#391,.T.);
#338=EDGE_CURVE('',#392,#389,#393,.T.);
#339=EDGE_CURVE('',#392,#394,#395,.T.);
#340=EDGE_CURVE('',#394,#390,#396,.T.);
#341=EDGE_CURVE('',#397,#398,#399,.T.);
#342=EDGE_CURVE('',#400,#397,#401,.T.);
#343=EDGE_CURVE('',#400,#402,#403,.T.);
#344=EDGE_CURVE('',#402,#398,#404,.T.);
#345=EDGE_CURVE('',#405,#406,#407,.T.);
#346=EDGE_CURVE('',#408,#405,#409,.T.);
#347=EDGE_CURVE('',#408,#410,#411,.T.);
#348=EDGE_CURVE('',#410,#406,#412,.T.);
#349=EDGE_CURVE('',#413,#414,#415,.T.);
#350=EDGE_CURVE('',#416,#413,#417,.T.);
#351=EDGE_CURVE('',#416,#418,#419,.T.);
#352=EDGE_CURVE('',#418,#414,#420,.T.);
#353=EDGE_CURVE('',#421,#422,#423,.T.);
#354=EDGE_CURVE('',#424,#421,#425,.T.);
#355=EDGE_CURVE('',#424,#426,#427,.T.);
#356=EDGE_CURVE('',#426,#422,#428,.T.);
#357=EDGE_CURVE('',#429,#430,#431,.T.);
#358=EDGE_CURVE('',#432,#429,#433,.T.);
#359=EDGE_CURVE('',#432,#434,#435,.T.);
#360=EDGE_CURVE('',#434,#430,#436,.T.);
#361=EDGE_CURVE('',#397,#392,#437,.T.);
#362=EDGE_CURVE('',#389,#400,#438,.T.);
#363=EDGE_CURVE('',#439,#440,#441,.T.);
#364=EDGE_CURVE('',#439,#440,#442,.T.);
#365=EDGE_CURVE('',#443,#444,#445,.T.);
#366=EDGE_CURVE('',#440,#444,#446,.T.);
#367=EDGE_CURVE('',#439,#443,#447,.T.);
#368=EDGE_CURVE('',#443,#444,#448,.T.);
#369=EDGE_CURVE('',#443,#434,#449,.T.);
#370=EDGE_CURVE('',#444,#426,#450,.T.);
#371=EDGE_CURVE('',#430,#426,#451,.T.);
#372=EDGE_CURVE('',#429,#424,#452,.T.);
#373=EDGE_CURVE('',#424,#418,#453,.T.);
#374=EDGE_CURVE('',#406,#418,#454,.T.);
#375=EDGE_CURVE('',#432,#410,#455,.T.);
#376=EDGE_CURVE('',#421,#432,#456,.T.);
#377=EDGE_CURVE('',#414,#410,#457,.T.);
#378=EDGE_CURVE('',#422,#434,#458,.T.);
#379=EDGE_CURVE('',#413,#408,#459,.T.);
#380=EDGE_CURVE('',#408,#460,#461,.T.);
#381=EDGE_CURVE('',#460,#462,#463,.T.);
#382=EDGE_CURVE('',#416,#462,#464,.T.);
#383=EDGE_CURVE('',#460,#462,#465,.T.);
#384=EDGE_CURVE('',#405,#416,#466,.T.);
#385=EDGE_CURVE('',#460,#402,#467,.T.);
#386=EDGE_CURVE('',#462,#394,#468,.T.);
#387=EDGE_CURVE('',#398,#394,#469,.T.);
#388=EDGE_CURVE('',#390,#402,#470,.T.);
#389=VERTEX_POINT('',#471);
#390=VERTEX_POINT('',#472);
#391=CIRCLE('',#473,0.2);
#392=VERTEX_POINT('',#474);
#393=CIRCLE('',#475,3.724999966946);
#394=VERTEX_POINT('',#476);
#395=CIRCLE('',#477,0.2);
#396=CIRCLE('',#478,3.925);
#397=VERTEX_POINT('',#479);
#398=VERTEX_POINT('',#480);
#399=CIRCLE('',#481,0.2);
#400=VERTEX_POINT('',#482);
#401=CIRCLE('',#483,3.724999966946);
#402=VERTEX_POINT('',#484);
#403=CIRCLE('',#485,0.2);
#404=CIRCLE('',#486,3.925);
#405=VERTEX_POINT('',#487);
#406=VERTEX_POINT('',#488);
#407=CIRCLE('',#489,0.1);
#408=VERTEX_POINT('',#490);
#409=CIRCLE('',#491,4.168750001135);
#410=VERTEX_POINT('',#492);
#411=CIRCLE('',#493,0.1);
#412=CIRCLE('',#494,4.25);
#413=VERTEX_POINT('',#495);
#414=VERTEX_POINT('',#496);
#415=CIRCLE('',#497,0.1);
#416=VERTEX_POINT('',#498);
#417=CIRCLE('',#499,4.168750001135);
#418=VERTEX_POINT('',#500);
#419=CIRCLE('',#501,0.1);
#420=CIRCLE('',#502,4.25);
#421=VERTEX_POINT('',#503);
#422=VERTEX_POINT('',#504);
#423=CIRCLE('',#505,0.1);
#424=VERTEX_POINT('',#506);
#425=CIRCLE('',#507,4.25);
#426=VERTEX_POINT('',#508);
#427=CIRCLE('',#509,0.1);
#428=CIRCLE('',#510,4.134210420001);
#429=VERTEX_POINT('',#511);
#430=VERTEX_POINT('',#512);
#431=CIRCLE('',#513,0.1);
#432=VERTEX_POINT('',#514);
#433=CIRCLE('',#515,4.25);
#434=VERTEX_POINT('',#516);
#435=CIRCLE('',#517,0.1);
#436=CIRCLE('',#518,4.134210420001);
#437=CIRCLE('',#519,3.724999966946);
#438=CIRCLE('',#520,3.724999966946);
#439=VERTEX_POINT('',#521);
#440=VERTEX_POINT('',#522);
#441=CIRCLE('',#523,3.65);
#442=CIRCLE('',#524,3.65);
#443=VERTEX_POINT('',#525);
#444=VERTEX_POINT('',#526);
#445=CIRCLE('',#527,3.65);
#446=LINE('',#528,#529);
#447=LINE('',#530,#531);
#448=CIRCLE('',#532,3.65);
#449=CIRCLE('',#533,0.575);
#450=CIRCLE('',#534,0.575);
#451=CIRCLE('',#535,4.134210420001);
#452=CIRCLE('',#536,4.25);
#453=LINE('',#537,#538);
#454=CIRCLE('',#539,4.25);
#455=LINE('',#540,#541);
#456=CIRCLE('',#542,4.25);
#457=CIRCLE('',#543,4.25);
#458=CIRCLE('',#544,4.134210420001);
#459=CIRCLE('',#545,4.168750001135);
#460=VERTEX_POINT('',#546);
#461=CIRCLE('',#547,0.3);
#462=VERTEX_POINT('',#548);
#463=CIRCLE('',#549,3.925);
#464=CIRCLE('',#550,0.3);
#465=CIRCLE('',#551,3.925);
#466=CIRCLE('',#552,4.168750001135);
#467=LINE('',#553,#554);
#468=LINE('',#555,#556);
#469=CIRCLE('',#557,3.925);
#470=CIRCLE('',#558,3.925);
#471=CARTESIAN_POINT('',(0.0,-3.72486601303755,0.0315901672269553));
#472=CARTESIAN_POINT('',(-0.2,-3.92485885393414,0.0332862838835019));
#473=AXIS2_PLACEMENT_3D('',#559,#560,#561);
#474=CARTESIAN_POINT('',(0.0,3.724999966946,0.0));
#475=AXIS2_PLACEMENT_3D('',#562,#563,#564);
#476=CARTESIAN_POINT('',(-0.2,3.925,0.0));
#477=AXIS2_PLACEMENT_3D('',#565,#566,#567);
#478=AXIS2_PLACEMENT_3D('',#568,#569,#570);
#479=CARTESIAN_POINT('',(0.0,3.72486601303755,-0.0315901672269514));
#480=CARTESIAN_POINT('',(-0.2,3.92485885393414,-0.0332862838834978));
#481=AXIS2_PLACEMENT_3D('',#571,#572,#573);
#482=CARTESIAN_POINT('',(0.0,-3.724999966946,0.0));
#483=AXIS2_PLACEMENT_3D('',#574,#575,#576);
#484=CARTESIAN_POINT('',(-0.2,-3.925,0.0));
#485=AXIS2_PLACEMENT_3D('',#577,#578,#579);
#486=AXIS2_PLACEMENT_3D('',#580,#581,#582);
#487=CARTESIAN_POINT('',(-17.71967938107,4.16862214051298,-0.032649986034153));
#488=CARTESIAN_POINT('',(-17.81790584097,4.24986964734191,-0.0332863425744816));
#489=AXIS2_PLACEMENT_3D('',#583,#584,#585);
#490=CARTESIAN_POINT('',(-17.71967938107,-4.168750001135,0.0));
#491=AXIS2_PLACEMENT_3D('',#586,#587,#588);
#492=CARTESIAN_POINT('',(-17.81790584114,-4.25,2.541641550002E-011));
#493=AXIS2_PLACEMENT_3D('',#589,#590,#591);
#494=AXIS2_PLACEMENT_3D('',#592,#593,#594);
#495=CARTESIAN_POINT('',(-17.71967938107,-4.16862214051298,0.032649986034153));
#496=CARTESIAN_POINT('',(-17.81790584097,-4.24986964734191,0.0332863425744816));
#497=AXIS2_PLACEMENT_3D('',#595,#596,#597);
#498=CARTESIAN_POINT('',(-17.71967938107,4.168750001135,0.0));
#499=AXIS2_PLACEMENT_3D('',#598,#599,#600);
#500=CARTESIAN_POINT('',(-17.81790584114,4.25,-2.541667050437E-011));
#501=AXIS2_PLACEMENT_3D('',#601,#602,#603);
#502=AXIS2_PLACEMENT_3D('',#604,#605,#606);
#503=CARTESIAN_POINT('',(-17.89404157524,-4.24985677078912,0.0348916577114009));
#504=CARTESIAN_POINT('',(-17.99278715393,-4.13407109301369,0.0339410482074311));
#505=AXIS2_PLACEMENT_3D('',#607,#608,#609);
#506=CARTESIAN_POINT('',(-17.89404157598,4.25,-1.219468276359E-011));
#507=AXIS2_PLACEMENT_3D('',#610,#611,#612);
#508=CARTESIAN_POINT('',(-17.99278715393,4.134210420001,0.0));
#509=AXIS2_PLACEMENT_3D('',#613,#614,#615);
#510=AXIS2_PLACEMENT_3D('',#616,#617,#618);
#511=CARTESIAN_POINT('',(-17.89404157524,4.24985677078912,-0.0348916577114009));
#512=CARTESIAN_POINT('',(-17.99278715393,4.13407109301369,-0.0339410482074311));
#513=AXIS2_PLACEMENT_3D('',#619,#620,#621);
#514=CARTESIAN_POINT('',(-17.89404157598,-4.25,1.219421265353E-011));
#515=AXIS2_PLACEMENT_3D('',#622,#623,#624);
#516=CARTESIAN_POINT('',(-17.99278715393,-4.134210420001,0.0));
#517=AXIS2_PLACEMENT_3D('',#625,#626,#627);
#518=AXIS2_PLACEMENT_3D('',#628,#629,#630);
#519=AXIS2_PLACEMENT_3D('',#631,#632,#633);
#520=AXIS2_PLACEMENT_3D('',#634,#635,#636);
#521=CARTESIAN_POINT('',(0.0,-3.65,0.0));
#522=CARTESIAN_POINT('',(0.0,3.65,0.0));
#523=AXIS2_PLACEMENT_3D('',#637,#638,#639);
#524=AXIS2_PLACEMENT_3D('',#640,#641,#642);
#525=CARTESIAN_POINT('',(-17.425,-3.65,0.0));
#526=CARTESIAN_POINT('',(-17.425,3.65,0.0));
#527=AXIS2_PLACEMENT_3D('',#643,#644,#645);
#528=CARTESIAN_POINT('',(0.0,3.65,0.0));
#529=VECTOR('',#646,17.425);
#530=CARTESIAN_POINT('',(0.0,-3.65,0.0));
#531=VECTOR('',#647,17.425);
#532=AXIS2_PLACEMENT_3D('',#648,#649,#650);
#533=AXIS2_PLACEMENT_3D('',#651,#652,#653);
#534=AXIS2_PLACEMENT_3D('',#654,#655,#656);
#535=AXIS2_PLACEMENT_3D('',#657,#658,#659);
#536=AXIS2_PLACEMENT_3D('',#660,#661,#662);
#537=CARTESIAN_POINT('',(-17.89404157598,4.25,-1.219468276359E-011));
#538=VECTOR('',#663,0.0761357348448);
#539=AXIS2_PLACEMENT_3D('',#664,#665,#666);
#540=CARTESIAN_POINT('',(-17.89404157598,-4.25,1.219421265353E-011));
#541=VECTOR('',#667,0.0761357348448);
#542=AXIS2_PLACEMENT_3D('',#668,#669,#670);
#543=AXIS2_PLACEMENT_3D('',#671,#672,#673);
#544=AXIS2_PLACEMENT_3D('',#674,#675,#676);
#545=AXIS2_PLACEMENT_3D('',#677,#678,#679);
#546=CARTESIAN_POINT('',(-17.425,-3.925,0.0));
#547=AXIS2_PLACEMENT_3D('',#680,#681,#682);
#548=CARTESIAN_POINT('',(-17.425,3.925,0.0));
#549=AXIS2_PLACEMENT_3D('',#683,#684,#685);
#550=AXIS2_PLACEMENT_3D('',#686,#687,#688);
#551=AXIS2_PLACEMENT_3D('',#689,#690,#691);
#552=AXIS2_PLACEMENT_3D('',#692,#693,#694);
#553=CARTESIAN_POINT('',(-17.425,-3.925,0.0));
#554=VECTOR('',#695,17.225);
#555=CARTESIAN_POINT('',(-17.425,3.925,0.0));
#556=VECTOR('',#696,17.225);
#557=AXIS2_PLACEMENT_3D('',#697,#698,#699);
#558=AXIS2_PLACEMENT_3D('',#700,#701,#702);
#559=CARTESIAN_POINT('',(-0.2,-3.72486604609036,0.0315901675072727));
#560=DIRECTION('',(0.0,-0.00848058188114704,-0.99996403921889));
#561=DIRECTION('',(0.0,-0.99996403921889,0.00848058188114704));
#562=CARTESIAN_POINT('',(0.0,0.0,0.0));
#563=DIRECTION('',(1.0,0.0,0.0));
#564=DIRECTION('',(0.0,1.0,0.0));
#565=CARTESIAN_POINT('',(-0.2,3.725,0.0));
#566=DIRECTION('',(0.0,0.0,1.0));
#567=DIRECTION('',(1.0,0.0,0.0));
#568=CARTESIAN_POINT('',(-0.2,0.0,0.0));
#569=DIRECTION('',(1.0,0.0,0.0));
#570=DIRECTION('',(0.0,1.0,0.0));
#571=CARTESIAN_POINT('',(-0.2,3.72486604609036,-0.031590167507269));
#572=DIRECTION('',(0.0,0.00848058188114604,0.99996403921889));
#573=DIRECTION('',(0.0,0.99996403921889,-0.00848058188114604));
#574=CARTESIAN_POINT('',(0.0,0.0,0.0));
#575=DIRECTION('',(1.0,0.0,0.0));
#576=DIRECTION('',(0.0,-1.0,0.0));
#577=CARTESIAN_POINT('',(-0.2,-3.725,0.0));
#578=DIRECTION('',(0.0,0.0,-1.0));
#579=DIRECTION('',(1.0,0.0,0.0));
#580=CARTESIAN_POINT('',(-0.2,0.0,0.0));
#581=DIRECTION('',(1.0,0.0,0.0));
#582=DIRECTION('',(0.0,-1.0,0.0));
#583=CARTESIAN_POINT('',(-17.81790584114,4.14987271446327,-0.0325031345139055));
#584=DIRECTION('',(0.0,0.00783208060576036,0.999969328786331));
#585=DIRECTION('',(0.0,0.999969328786331,-0.00783208060576036));
#586=CARTESIAN_POINT('',(-17.71967938107,0.0,0.0));
#587=DIRECTION('',(1.0,0.0,0.0));
#588=DIRECTION('',(0.0,-1.0,0.0));
#589=CARTESIAN_POINT('',(-17.81790584114,-4.15,1.827302198443E-012));
#590=DIRECTION('',(-8.04855271926661E-027,-4.40312716842898E-013,-1.0));
#591=DIRECTION('',(0.982264602848477,-0.187499999975796,8.25586343973781E-014));
#592=CARTESIAN_POINT('',(-17.81790584097,0.0,0.0));
#593=DIRECTION('',(1.0,0.0,0.0));
#594=DIRECTION('',(0.0,-1.0,0.0));
#595=CARTESIAN_POINT('',(-17.81790584114,-4.14987271446327,0.0325031345139055));
#596=DIRECTION('',(0.0,-0.00783208060576036,-0.999969328786331));
#597=DIRECTION('',(0.0,-0.999969328786331,0.00783208060576036));
#598=CARTESIAN_POINT('',(-17.71967938107,0.0,0.0));
#599=DIRECTION('',(1.0,0.0,0.0));
#600=DIRECTION('',(0.0,1.0,0.0));
#601=CARTESIAN_POINT('',(-17.81790584114,4.15,-1.82402704052E-012));
#602=DIRECTION('',(-2.30658614603548E-026,4.39525152384796E-013,1.0));
#603=DIRECTION('',(0.982264602848477,0.187499999975796,-8.24109660614881E-014));
#604=CARTESIAN_POINT('',(-17.81790584097,0.0,0.0));
#605=DIRECTION('',(1.0,0.0,0.0));
#606=DIRECTION('',(0.0,1.0,0.0));
#607=CARTESIAN_POINT('',(-17.89404157598,-4.1498601408882,0.0340706775299558));
#608=DIRECTION('',(0.0,-0.00820980181444717,-0.999966299009205));
#609=DIRECTION('',(0.0,-0.999966299009205,0.00820980181444717));
#610=CARTESIAN_POINT('',(-17.89404157524,0.0,0.0));
#611=DIRECTION('',(1.0,0.0,0.0));
#612=DIRECTION('',(0.0,1.0,0.0));
#613=CARTESIAN_POINT('',(-17.89404157598,4.15,-4.825951444021E-011));
#614=DIRECTION('',(2.56437618971441E-041,1.162879688377E-011,1.0));
#615=DIRECTION('',(1.42108547152E-013,1.0,-1.162879688377E-011));
#616=CARTESIAN_POINT('',(-17.99278715393,0.0,0.0));
#617=DIRECTION('',(1.0,0.0,0.0));
#618=DIRECTION('',(0.0,1.0,0.0));
#619=CARTESIAN_POINT('',(-17.89404157598,4.1498601408882,-0.0340706775299558));
#620=DIRECTION('',(0.0,0.00820980181444717,0.999966299009205));
#621=DIRECTION('',(0.0,0.999966299009205,-0.00820980181444717));
#622=CARTESIAN_POINT('',(-17.89404157524,0.0,0.0));
#623=DIRECTION('',(1.0,0.0,0.0));
#624=DIRECTION('',(0.0,-1.0,0.0));
#625=CARTESIAN_POINT('',(-17.89404157598,-4.15,4.825945199016E-011));
#626=DIRECTION('',(2.59240215900091E-041,-1.162878127126E-011,-1.0));
#627=DIRECTION('',(1.42108547152E-013,-1.0,1.162878127126E-011));
#628=CARTESIAN_POINT('',(-17.99278715393,0.0,0.0));
#629=DIRECTION('',(1.0,0.0,0.0));
#630=DIRECTION('',(0.0,-1.0,0.0));
#631=CARTESIAN_POINT('',(0.0,0.0,0.0));
#632=DIRECTION('',(1.0,0.0,0.0));
#633=DIRECTION('',(0.0,-1.0,0.0));
#634=CARTESIAN_POINT('',(0.0,0.0,0.0));
#635=DIRECTION('',(1.0,0.0,0.0));
#636=DIRECTION('',(0.0,1.0,0.0));
#637=CARTESIAN_POINT('',(0.0,0.0,0.0));
#638=DIRECTION('',(1.0,0.0,0.0));
#639=DIRECTION('',(0.0,-1.0,0.0));
#640=CARTESIAN_POINT('',(0.0,0.0,0.0));
#641=DIRECTION('',(-1.0,0.0,0.0));
#642=DIRECTION('',(0.0,-1.0,0.0));
#643=CARTESIAN_POINT('',(-17.425,0.0,0.0));
#644=DIRECTION('',(-1.0,0.0,0.0));
#645=DIRECTION('',(0.0,-1.0,0.0));
#646=DIRECTION('',(-1.0,0.0,0.0));
#647=DIRECTION('',(-1.0,0.0,0.0));
#648=CARTESIAN_POINT('',(-17.425,0.0,0.0));
#649=DIRECTION('',(1.0,0.0,0.0));
#650=DIRECTION('',(0.0,-1.0,0.0));
#651=CARTESIAN_POINT('',(-17.425,-4.225,0.0));
#652=DIRECTION('',(0.0,-0.0,1.0));
#653=DIRECTION('',(0.0,1.0,0.0));
#654=CARTESIAN_POINT('',(-17.425,4.225,0.0));
#655=DIRECTION('',(0.0,0.0,-1.0));
#656=DIRECTION('',(0.0,-1.0,0.0));
#657=CARTESIAN_POINT('',(-17.99278715393,0.0,0.0));
#658=DIRECTION('',(1.0,0.0,0.0));
#659=DIRECTION('',(0.0,-1.0,0.0));
#660=CARTESIAN_POINT('',(-17.89404157524,0.0,0.0));
#661=DIRECTION('',(1.0,0.0,0.0));
#662=DIRECTION('',(0.0,-1.0,0.0));
#663=DIRECTION('',(1.0,0.0,-1.736633627788E-010));
#664=CARTESIAN_POINT('',(-17.81790584097,0.0,0.0));
#665=DIRECTION('',(1.0,0.0,0.0));
#666=DIRECTION('',(0.0,-1.0,0.0));
#667=DIRECTION('',(1.0,0.0,1.736661880712E-010));
#668=CARTESIAN_POINT('',(-17.89404157524,0.0,0.0));
#669=DIRECTION('',(1.0,0.0,0.0));
#670=DIRECTION('',(0.0,1.0,0.0));
#671=CARTESIAN_POINT('',(-17.81790584097,0.0,0.0));
#672=DIRECTION('',(1.0,0.0,0.0));
#673=DIRECTION('',(0.0,1.0,0.0));
#674=CARTESIAN_POINT('',(-17.99278715393,0.0,0.0));
#675=DIRECTION('',(1.0,0.0,0.0));
#676=DIRECTION('',(0.0,1.0,0.0));
#677=CARTESIAN_POINT('',(-17.71967938107,0.0,0.0));
#678=DIRECTION('',(1.0,0.0,0.0));
#679=DIRECTION('',(0.0,1.0,0.0));
#680=CARTESIAN_POINT('',(-17.425,-4.225,0.0));
#681=DIRECTION('',(0.0,0.0,-1.0));
#682=DIRECTION('',(-0.982264602843859,0.187499999999992,0.0));
#683=CARTESIAN_POINT('',(-17.425,0.0,0.0));
#684=DIRECTION('',(-1.0,0.0,0.0));
#685=DIRECTION('',(0.0,-1.0,0.0));
#686=CARTESIAN_POINT('',(-17.425,4.225,0.0));
#687=DIRECTION('',(0.0,0.0,1.0));
#688=DIRECTION('',(-0.982264602843859,-0.187499999999992,0.0));
#689=CARTESIAN_POINT('',(-17.425,0.0,0.0));
#690=DIRECTION('',(1.0,0.0,0.0));
#691=DIRECTION('',(0.0,-1.0,0.0));
#692=CARTESIAN_POINT('',(-17.71967938107,0.0,0.0));
#693=DIRECTION('',(1.0,0.0,0.0));
#694=DIRECTION('',(0.0,-1.0,0.0));
#695=DIRECTION('',(1.0,0.0,2.518476074357E-014));
#696=DIRECTION('',(1.0,0.0,-2.5167499112E-014));
#697=CARTESIAN_POINT('',(-0.2,0.0,0.0));
#698=DIRECTION('',(1.0,0.0,0.0));
#699=DIRECTION('',(0.0,-1.0,0.0));
#700=CARTESIAN_POINT('',(-0.2,0.0,0.0));
#701=DIRECTION('',(1.0,0.0,0.0));
#702=DIRECTION('',(0.0,1.0,0.0));
ENDSEC;
END-ISO-10303-21;
