ISO-10303-21;
HEADER;
FILE_DESCRIPTION(('STEP AP214'),'1');
FILE_NAME('C:/PartsXMLTools/RobotParts/Generated/STEP_SAT/CAD/Temp/0206_13_00.stp','2016-07-07T14:23:24',('TraceParts'),('TraceParts S.A.'),'Spatial InterOp 3D',' ',' ');
FILE_SCHEMA(('automotive_design'));
ENDSEC;
DATA;
#1=PRODUCT_DEFINITION_CONTEXT('',#9,'design');
#2=APPLICATION_PROTOCOL_DEFINITION('INTERNATIONAL STANDARD','automotive_design',1994,#9);
#3=PRODUCT_CATEGORY_RELATIONSHIP('NONE','NONE',#10,#11);
#4=SHAPE_DEFINITION_REPRESENTATION(#12,#13);
#5= (GEOMETRIC_REPRESENTATION_CONTEXT(3)GLOBAL_UNCERTAINTY_ASSIGNED_CONTEXT((#16))GLOBAL_UNIT_ASSIGNED_CONTEXT((#18,#19,#20))REPRESENTATION_CONTEXT('NONE','WORKSPACE'));
#9=APPLICATION_CONTEXT(' ');
#10=PRODUCT_CATEGORY('part','NONE');
#11=PRODUCT_RELATED_PRODUCT_CATEGORY('detail',' ',(#22));
#12=PRODUCT_DEFINITION_SHAPE('NONE','NONE',#23);
#13=ADVANCED_BREP_SHAPE_REPRESENTATION('1',(#24,#25),#5);
#16=UNCERTAINTY_MEASURE_WITH_UNIT(LENGTH_MEASURE(1.0E-006),#18,'','');
#18= (CONVERSION_BASED_UNIT('MILLIMETRE',#28)LENGTH_UNIT()NAMED_UNIT(#31));
#19= (NAMED_UNIT(#33)PLANE_ANGLE_UNIT()SI_UNIT($,.RADIAN.));
#20= (NAMED_UNIT(#33)SOLID_ANGLE_UNIT()SI_UNIT($,.STERADIAN.));
#22=PRODUCT('1','1','PART-1-DESC',(#39));
#23=PRODUCT_DEFINITION('NONE','NONE',#40,#1);
#24=MANIFOLD_SOLID_BREP('1',#41);
#25=AXIS2_PLACEMENT_3D('',#42,#43,#44);
#28=LENGTH_MEASURE_WITH_UNIT(LENGTH_MEASURE(1.0),#45);
#31=DIMENSIONAL_EXPONENTS(1.0,0.0,0.0,0.0,0.0,0.0,0.0);
#33=DIMENSIONAL_EXPONENTS(0.0,0.0,0.0,0.0,0.0,0.0,0.0);
#39=PRODUCT_CONTEXT('',#9,'mechanical');
#40=PRODUCT_DEFINITION_FORMATION_WITH_SPECIFIED_SOURCE(' ','NONE',#22,.NOT_KNOWN.);
#41=CLOSED_SHELL('',(#46,#47,#48,#49,#50,#51,#52,#53,#54,#55,#56,#57,#58,#59,#60,#61,#62,#63,#64));
#42=CARTESIAN_POINT('',(0.0,0.0,0.0));
#43=DIRECTION('',(0.0,0.0,1.0));
#44=DIRECTION('',(1.0,0.0,0.0));
#45= (NAMED_UNIT(#31)LENGTH_UNIT()SI_UNIT(.MILLI.,.METRE.));
#46=ADVANCED_FACE('',(#66),#67,.T.);
#47=ADVANCED_FACE('',(#68),#69,.T.);
#48=ADVANCED_FACE('',(#70),#71,.T.);
#49=ADVANCED_FACE('',(#72),#73,.T.);
#50=ADVANCED_FACE('',(#74),#75,.F.);
#51=ADVANCED_FACE('',(#76),#77,.F.);
#52=ADVANCED_FACE('',(#78),#79,.F.);
#53=ADVANCED_FACE('',(#80),#81,.F.);
#54=ADVANCED_FACE('',(#82),#83,.F.);
#55=ADVANCED_FACE('',(#84),#85,.F.);
#56=ADVANCED_FACE('',(#86),#87,.T.);
#57=ADVANCED_FACE('',(#88,#89),#90,.F.);
#58=ADVANCED_FACE('',(#91),#92,.T.);
#59=ADVANCED_FACE('',(#93,#94),#95,.F.);
#60=ADVANCED_FACE('',(#96,#97),#98,.F.);
#61=ADVANCED_FACE('',(#99),#100,.T.);
#62=ADVANCED_FACE('',(#101),#102,.T.);
#63=ADVANCED_FACE('',(#103),#104,.T.);
#64=ADVANCED_FACE('',(#105),#106,.T.);
#66=FACE_OUTER_BOUND('',#107,.T.);
#67=CONICAL_SURFACE('',#108,6.6075,0.0312398334302648);
#68=FACE_OUTER_BOUND('',#109,.T.);
#69=CONICAL_SURFACE('',#110,6.02325,0.800781565178043);
#70=FACE_OUTER_BOUND('',#111,.T.);
#71=CONICAL_SURFACE('',#112,6.6075,0.0312398334302648);
#72=FACE_OUTER_BOUND('',#113,.T.);
#73=CYLINDRICAL_SURFACE('',#114,5.7225);
#74=FACE_OUTER_BOUND('',#115,.T.);
#75=PLANE('',#116);
#76=FACE_OUTER_BOUND('',#117,.T.);
#77=PLANE('',#118);
#78=FACE_OUTER_BOUND('',#119,.T.);
#79=PLANE('',#120);
#80=FACE_OUTER_BOUND('',#121,.T.);
#81=PLANE('',#122);
#82=FACE_OUTER_BOUND('',#123,.T.);
#83=PLANE('',#124);
#84=FACE_OUTER_BOUND('',#125,.T.);
#85=PLANE('',#126);
#86=FACE_OUTER_BOUND('',#127,.T.);
#87=PLANE('',#128);
#88=FACE_BOUND('',#129,.T.);
#89=FACE_OUTER_BOUND('',#130,.T.);
#90=PLANE('',#131);
#91=FACE_OUTER_BOUND('',#132,.T.);
#92=CYLINDRICAL_SURFACE('',#133,5.7225);
#93=FACE_OUTER_BOUND('',#134,.T.);
#94=FACE_BOUND('',#135,.T.);
#95=PLANE('',#136);
#96=FACE_OUTER_BOUND('',#137,.T.);
#97=FACE_BOUND('',#138,.T.);
#98=PLANE('',#139);
#99=FACE_OUTER_BOUND('',#140,.T.);
#100=CONICAL_SURFACE('',#141,6.6075,0.0312398334302648);
#101=FACE_OUTER_BOUND('',#142,.T.);
#102=CONICAL_SURFACE('',#143,6.02325,0.800781565178043);
#103=FACE_OUTER_BOUND('',#144,.T.);
#104=CONICAL_SURFACE('',#145,6.6075,0.0312398334302648);
#105=FACE_OUTER_BOUND('',#146,.T.);
#106=PLANE('',#147);
#107=EDGE_LOOP('',(#148,#149,#150,#151));
#108=AXIS2_PLACEMENT_3D('',#152,#153,#154);
#109=EDGE_LOOP('',(#155,#156,#157,#158));
#110=AXIS2_PLACEMENT_3D('',#159,#160,#161);
#111=EDGE_LOOP('',(#162,#163,#164,#165));
#112=AXIS2_PLACEMENT_3D('',#166,#167,#168);
#113=EDGE_LOOP('',(#169,#170,#171,#172));
#114=AXIS2_PLACEMENT_3D('',#173,#174,#175);
#115=EDGE_LOOP('',(#176,#177,#178,#179));
#116=AXIS2_PLACEMENT_3D('',#180,#181,#182);
#117=EDGE_LOOP('',(#183,#184,#185,#186));
#118=AXIS2_PLACEMENT_3D('',#187,#188,#189);
#119=EDGE_LOOP('',(#190,#191,#192,#193));
#120=AXIS2_PLACEMENT_3D('',#194,#195,#196);
#121=EDGE_LOOP('',(#197,#198,#199,#200));
#122=AXIS2_PLACEMENT_3D('',#201,#202,#203);
#123=EDGE_LOOP('',(#204,#205,#206,#207));
#124=AXIS2_PLACEMENT_3D('',#208,#209,#210);
#125=EDGE_LOOP('',(#211,#212,#213,#214));
#126=AXIS2_PLACEMENT_3D('',#215,#216,#217);
#127=EDGE_LOOP('',(#218,#219,#220,#221,#222,#223));
#128=AXIS2_PLACEMENT_3D('',#224,#225,#226);
#129=EDGE_LOOP('',(#227,#228,#229,#230,#231,#232));
#130=EDGE_LOOP('',(#233,#234));
#131=AXIS2_PLACEMENT_3D('',#235,#236,#237);
#132=EDGE_LOOP('',(#238,#239,#240,#241));
#133=AXIS2_PLACEMENT_3D('',#242,#243,#244);
#134=EDGE_LOOP('',(#245,#246));
#135=EDGE_LOOP('',(#247,#248));
#136=AXIS2_PLACEMENT_3D('',#249,#250,#251);
#137=EDGE_LOOP('',(#252,#253));
#138=EDGE_LOOP('',(#254,#255));
#139=AXIS2_PLACEMENT_3D('',#256,#257,#258);
#140=EDGE_LOOP('',(#259,#260,#261,#262));
#141=AXIS2_PLACEMENT_3D('',#263,#264,#265);
#142=EDGE_LOOP('',(#266,#267,#268,#269));
#143=AXIS2_PLACEMENT_3D('',#270,#271,#272);
#144=EDGE_LOOP('',(#273,#274,#275,#276));
#145=AXIS2_PLACEMENT_3D('',#277,#278,#279);
#146=EDGE_LOOP('',(#280,#281));
#147=AXIS2_PLACEMENT_3D('',#282,#283,#284);
#148=ORIENTED_EDGE('',*,*,#285,.F.);
#149=ORIENTED_EDGE('',*,*,#286,.T.);
#150=ORIENTED_EDGE('',*,*,#287,.F.);
#151=ORIENTED_EDGE('',*,*,#288,.T.);
#152=CARTESIAN_POINT('',(0.0,-4.572,0.0));
#153=DIRECTION('',(-0.0,1.0,-0.0));
#154=DIRECTION('',(1.0,0.0,0.0));
#155=ORIENTED_EDGE('',*,*,#289,.F.);
#156=ORIENTED_EDGE('',*,*,#290,.T.);
#157=ORIENTED_EDGE('',*,*,#291,.F.);
#158=ORIENTED_EDGE('',*,*,#286,.F.);
#159=CARTESIAN_POINT('',(0.0,-9.572,0.0));
#160=DIRECTION('',(-0.0,1.0,-0.0));
#161=DIRECTION('',(1.0,0.0,0.0));
#162=ORIENTED_EDGE('',*,*,#292,.F.);
#163=ORIENTED_EDGE('',*,*,#293,.T.);
#164=ORIENTED_EDGE('',*,*,#294,.F.);
#165=ORIENTED_EDGE('',*,*,#295,.F.);
#166=CARTESIAN_POINT('',(0.0,-4.572,0.0));
#167=DIRECTION('',(-0.0,1.0,-0.0));
#168=DIRECTION('',(1.0,0.0,0.0));
#169=ORIENTED_EDGE('',*,*,#296,.F.);
#170=ORIENTED_EDGE('',*,*,#297,.T.);
#171=ORIENTED_EDGE('',*,*,#298,.F.);
#172=ORIENTED_EDGE('',*,*,#299,.T.);
#173=CARTESIAN_POINT('',(0.0,-5.5,0.0));
#174=DIRECTION('',(-0.0,1.0,0.0));
#175=DIRECTION('',(1.0,0.0,0.0));
#176=ORIENTED_EDGE('',*,*,#300,.F.);
#177=ORIENTED_EDGE('',*,*,#301,.T.);
#178=ORIENTED_EDGE('',*,*,#302,.F.);
#179=ORIENTED_EDGE('',*,*,#303,.F.);
#180=CARTESIAN_POINT('',(2.59807621135332,1.0,-1.5));
#181=DIRECTION('',(0.866025403784438,0.0,-0.5));
#182=DIRECTION('',(0.5,0.0,0.866025403784438));
#183=ORIENTED_EDGE('',*,*,#304,.F.);
#184=ORIENTED_EDGE('',*,*,#303,.T.);
#185=ORIENTED_EDGE('',*,*,#305,.F.);
#186=ORIENTED_EDGE('',*,*,#306,.F.);
#187=CARTESIAN_POINT('',(2.59807621135332,1.0,1.5));
#188=DIRECTION('',(0.866025403784439,0.0,0.5));
#189=DIRECTION('',(-0.5,0.0,0.866025403784439));
#190=ORIENTED_EDGE('',*,*,#307,.F.);
#191=ORIENTED_EDGE('',*,*,#306,.T.);
#192=ORIENTED_EDGE('',*,*,#308,.F.);
#193=ORIENTED_EDGE('',*,*,#309,.F.);
#194=CARTESIAN_POINT('',(8.88178419700125E-016,1.0,3.0));
#195=DIRECTION('',(2.56395024851142E-016,0.0,1.0));
#196=DIRECTION('',(-1.0,0.0,2.56395024851142E-016));
#197=ORIENTED_EDGE('',*,*,#310,.F.);
#198=ORIENTED_EDGE('',*,*,#309,.T.);
#199=ORIENTED_EDGE('',*,*,#311,.F.);
#200=ORIENTED_EDGE('',*,*,#312,.F.);
#201=CARTESIAN_POINT('',(-2.59807621135332,1.0,1.5));
#202=DIRECTION('',(-0.866025403784439,0.0,0.5));
#203=DIRECTION('',(-0.5,-0.0,-0.866025403784439));
#204=ORIENTED_EDGE('',*,*,#313,.F.);
#205=ORIENTED_EDGE('',*,*,#314,.T.);
#206=ORIENTED_EDGE('',*,*,#315,.F.);
#207=ORIENTED_EDGE('',*,*,#301,.F.);
#208=CARTESIAN_POINT('',(-6.66133814775094E-016,1.0,-3.0));
#209=DIRECTION('',(0.0,0.0,-1.0));
#210=DIRECTION('',(1.0,0.0,0.0));
#211=ORIENTED_EDGE('',*,*,#316,.F.);
#212=ORIENTED_EDGE('',*,*,#312,.T.);
#213=ORIENTED_EDGE('',*,*,#317,.F.);
#214=ORIENTED_EDGE('',*,*,#314,.F.);
#215=CARTESIAN_POINT('',(-2.59807621135332,1.0,-1.5));
#216=DIRECTION('',(-0.866025403784439,-0.0,-0.5));
#217=DIRECTION('',(0.5,0.0,-0.866025403784439));
#218=ORIENTED_EDGE('',*,*,#311,.T.);
#219=ORIENTED_EDGE('',*,*,#308,.T.);
#220=ORIENTED_EDGE('',*,*,#305,.T.);
#221=ORIENTED_EDGE('',*,*,#302,.T.);
#222=ORIENTED_EDGE('',*,*,#315,.T.);
#223=ORIENTED_EDGE('',*,*,#317,.T.);
#224=CARTESIAN_POINT('',(-7.23327122104269E-017,-8.0,1.11022302462516E-016));
#225=DIRECTION('',(0.0,1.0,0.0));
#226=DIRECTION('',(0.0,0.0,1.0));
#227=ORIENTED_EDGE('',*,*,#310,.T.);
#228=ORIENTED_EDGE('',*,*,#316,.T.);
#229=ORIENTED_EDGE('',*,*,#313,.T.);
#230=ORIENTED_EDGE('',*,*,#300,.T.);
#231=ORIENTED_EDGE('',*,*,#304,.T.);
#232=ORIENTED_EDGE('',*,*,#307,.T.);
#233=ORIENTED_EDGE('',*,*,#295,.T.);
#234=ORIENTED_EDGE('',*,*,#318,.T.);
#235=CARTESIAN_POINT('',(0.0,0.0,0.0));
#236=DIRECTION('',(0.0,-1.0,0.0));
#237=DIRECTION('',(-1.0,0.0,0.0));
#238=ORIENTED_EDGE('',*,*,#296,.T.);
#239=ORIENTED_EDGE('',*,*,#319,.T.);
#240=ORIENTED_EDGE('',*,*,#298,.T.);
#241=ORIENTED_EDGE('',*,*,#320,.T.);
#242=CARTESIAN_POINT('',(0.0,-5.5,0.0));
#243=DIRECTION('',(-0.0,1.0,0.0));
#244=DIRECTION('',(1.0,0.0,0.0));
#245=ORIENTED_EDGE('',*,*,#288,.F.);
#246=ORIENTED_EDGE('',*,*,#321,.F.);
#247=ORIENTED_EDGE('',*,*,#297,.F.);
#248=ORIENTED_EDGE('',*,*,#320,.F.);
#249=CARTESIAN_POINT('',(0.0,-5.505,0.0));
#250=DIRECTION('',(0.0,-1.0,0.0));
#251=DIRECTION('',(-1.0,0.0,0.0));
#252=ORIENTED_EDGE('',*,*,#322,.F.);
#253=ORIENTED_EDGE('',*,*,#293,.F.);
#254=ORIENTED_EDGE('',*,*,#319,.F.);
#255=ORIENTED_EDGE('',*,*,#299,.F.);
#256=CARTESIAN_POINT('',(0.0,-5.495,0.0));
#257=DIRECTION('',(-0.0,1.0,0.0));
#258=DIRECTION('',(1.0,0.0,0.0));
#259=ORIENTED_EDGE('',*,*,#292,.T.);
#260=ORIENTED_EDGE('',*,*,#318,.F.);
#261=ORIENTED_EDGE('',*,*,#294,.T.);
#262=ORIENTED_EDGE('',*,*,#322,.T.);
#263=CARTESIAN_POINT('',(0.0,-4.572,0.0));
#264=DIRECTION('',(-0.0,1.0,-0.0));
#265=DIRECTION('',(1.0,0.0,0.0));
#266=ORIENTED_EDGE('',*,*,#289,.T.);
#267=ORIENTED_EDGE('',*,*,#323,.F.);
#268=ORIENTED_EDGE('',*,*,#291,.T.);
#269=ORIENTED_EDGE('',*,*,#324,.T.);
#270=CARTESIAN_POINT('',(0.0,-9.572,0.0));
#271=DIRECTION('',(-0.0,1.0,-0.0));
#272=DIRECTION('',(1.0,0.0,0.0));
#273=ORIENTED_EDGE('',*,*,#285,.T.);
#274=ORIENTED_EDGE('',*,*,#321,.T.);
#275=ORIENTED_EDGE('',*,*,#287,.T.);
#276=ORIENTED_EDGE('',*,*,#323,.T.);
#277=CARTESIAN_POINT('',(0.0,-4.572,0.0));
#278=DIRECTION('',(-0.0,1.0,-0.0));
#279=DIRECTION('',(1.0,0.0,0.0));
#280=ORIENTED_EDGE('',*,*,#290,.F.);
#281=ORIENTED_EDGE('',*,*,#324,.F.);
#282=CARTESIAN_POINT('',(2.7909375,-10.0,0.0));
#283=DIRECTION('',(-0.0,-1.0,-0.0));
#284=DIRECTION('',(-1.0,0.0,0.0));
#285=EDGE_CURVE('',#325,#326,#327,.T.);
#286=EDGE_CURVE('',#325,#328,#329,.T.);
#287=EDGE_CURVE('',#330,#328,#331,.T.);
#288=EDGE_CURVE('',#330,#326,#332,.T.);
#289=EDGE_CURVE('',#333,#325,#334,.T.);
#290=EDGE_CURVE('',#333,#335,#336,.T.);
#291=EDGE_CURVE('',#328,#335,#337,.T.);
#292=EDGE_CURVE('',#338,#339,#340,.T.);
#293=EDGE_CURVE('',#338,#341,#342,.T.);
#294=EDGE_CURVE('',#343,#341,#344,.T.);
#295=EDGE_CURVE('',#339,#343,#345,.T.);
#296=EDGE_CURVE('',#346,#347,#348,.T.);
#297=EDGE_CURVE('',#346,#349,#350,.T.);
#298=EDGE_CURVE('',#351,#349,#352,.T.);
#299=EDGE_CURVE('',#351,#347,#353,.T.);
#300=EDGE_CURVE('',#354,#355,#356,.T.);
#301=EDGE_CURVE('',#354,#357,#358,.T.);
#302=EDGE_CURVE('',#359,#357,#360,.T.);
#303=EDGE_CURVE('',#355,#359,#361,.T.);
#304=EDGE_CURVE('',#355,#362,#363,.T.);
#305=EDGE_CURVE('',#364,#359,#365,.T.);
#306=EDGE_CURVE('',#362,#364,#366,.T.);
#307=EDGE_CURVE('',#362,#367,#368,.T.);
#308=EDGE_CURVE('',#369,#364,#370,.T.);
#309=EDGE_CURVE('',#367,#369,#371,.T.);
#310=EDGE_CURVE('',#367,#372,#373,.T.);
#311=EDGE_CURVE('',#374,#369,#375,.T.);
#312=EDGE_CURVE('',#372,#374,#376,.T.);
#313=EDGE_CURVE('',#377,#354,#378,.T.);
#314=EDGE_CURVE('',#377,#379,#380,.T.);
#315=EDGE_CURVE('',#357,#379,#381,.T.);
#316=EDGE_CURVE('',#372,#377,#382,.T.);
#317=EDGE_CURVE('',#379,#374,#383,.T.);
#318=EDGE_CURVE('',#343,#339,#384,.T.);
#319=EDGE_CURVE('',#347,#351,#385,.T.);
#320=EDGE_CURVE('',#349,#346,#386,.T.);
#321=EDGE_CURVE('',#326,#330,#387,.T.);
#322=EDGE_CURVE('',#341,#338,#388,.T.);
#323=EDGE_CURVE('',#328,#325,#389,.T.);
#324=EDGE_CURVE('',#335,#333,#390,.T.);
#325=VERTEX_POINT('',#391);
#326=VERTEX_POINT('',#392);
#327=LINE('',#393,#394);
#328=VERTEX_POINT('',#395);
#329=CIRCLE('',#396,6.464625);
#330=VERTEX_POINT('',#397);
#331=LINE('',#398,#399);
#332=CIRCLE('',#400,6.57834375);
#333=VERTEX_POINT('',#401);
#334=LINE('',#402,#403);
#335=VERTEX_POINT('',#404);
#336=CIRCLE('',#405,5.581875);
#337=LINE('',#406,#407);
#338=VERTEX_POINT('',#408);
#339=VERTEX_POINT('',#409);
#340=LINE('',#410,#411);
#341=VERTEX_POINT('',#412);
#342=CIRCLE('',#413,6.57865625);
#343=VERTEX_POINT('',#414);
#344=LINE('',#415,#416);
#345=CIRCLE('',#417,6.750375);
#346=VERTEX_POINT('',#418);
#347=VERTEX_POINT('',#419);
#348=LINE('',#420,#421);
#349=VERTEX_POINT('',#422);
#350=CIRCLE('',#423,5.7225);
#351=VERTEX_POINT('',#424);
#352=LINE('',#425,#426);
#353=CIRCLE('',#427,5.7225);
#354=VERTEX_POINT('',#428);
#355=VERTEX_POINT('',#429);
#356=LINE('',#430,#431);
#357=VERTEX_POINT('',#432);
#358=LINE('',#433,#434);
#359=VERTEX_POINT('',#435);
#360=LINE('',#436,#437);
#361=LINE('',#438,#439);
#362=VERTEX_POINT('',#440);
#363=LINE('',#441,#442);
#364=VERTEX_POINT('',#443);
#365=LINE('',#444,#445);
#366=LINE('',#446,#447);
#367=VERTEX_POINT('',#448);
#368=LINE('',#449,#450);
#369=VERTEX_POINT('',#451);
#370=LINE('',#452,#453);
#371=LINE('',#454,#455);
#372=VERTEX_POINT('',#456);
#373=LINE('',#457,#458);
#374=VERTEX_POINT('',#459);
#375=LINE('',#460,#461);
#376=LINE('',#462,#463);
#377=VERTEX_POINT('',#464);
#378=LINE('',#465,#466);
#379=VERTEX_POINT('',#467);
#380=LINE('',#468,#469);
#381=LINE('',#470,#471);
#382=LINE('',#472,#473);
#383=LINE('',#474,#475);
#384=CIRCLE('',#476,6.750375);
#385=CIRCLE('',#477,5.7225);
#386=CIRCLE('',#478,5.7225);
#387=CIRCLE('',#479,6.57834375);
#388=CIRCLE('',#480,6.57865625);
#389=CIRCLE('',#481,6.464625);
#390=CIRCLE('',#482,5.581875);
#391=CARTESIAN_POINT('',(6.464625,-9.144,0.0));
#392=CARTESIAN_POINT('',(6.57834375,-5.505,8.05588155387772E-016));
#393=CARTESIAN_POINT('',(6.6075,-4.572,8.09158648288136E-016));
#394=VECTOR('',#483,1.0);
#395=CARTESIAN_POINT('',(-6.464625,-9.144,-7.91662085007899E-016));
#396=AXIS2_PLACEMENT_3D('',#484,#485,#486);
#397=CARTESIAN_POINT('',(-6.57834375,-5.505,-8.05588155387772E-016));
#398=CARTESIAN_POINT('',(-6.6075,-4.572,-8.09158648288136E-016));
#399=VECTOR('',#487,1.0);
#400=AXIS2_PLACEMENT_3D('',#488,#489,#490);
#401=CARTESIAN_POINT('',(5.581875,-10.0,0.0));
#402=CARTESIAN_POINT('',(6.02325,-9.572,7.37611022066063E-016));
#403=VECTOR('',#491,1.0);
#404=CARTESIAN_POINT('',(-5.581875,-10.0,-6.83559959124228E-016));
#405=AXIS2_PLACEMENT_3D('',#492,#493,#494);
#406=CARTESIAN_POINT('',(-6.02325,-9.572,-7.37611022066063E-016));
#407=VECTOR('',#495,1.0);
#408=CARTESIAN_POINT('',(6.57865625,-5.495,8.05626424336329E-016));
#409=CARTESIAN_POINT('',(6.750375,0.0,0.0));
#410=CARTESIAN_POINT('',(6.6075,-4.572,8.09158648288136E-016));
#411=VECTOR('',#496,1.0);
#412=CARTESIAN_POINT('',(-6.57865625,-5.495,8.05626424336329E-016));
#413=AXIS2_PLACEMENT_3D('',#497,#498,#499);
#414=CARTESIAN_POINT('',(-6.750375,0.0,-8.26655211568373E-016));
#415=CARTESIAN_POINT('',(-6.6075,-4.572,-8.09158648288136E-016));
#416=VECTOR('',#500,1.0);
#417=AXIS2_PLACEMENT_3D('',#501,#502,#503);
#418=CARTESIAN_POINT('',(5.7225,-5.505,0.0));
#419=CARTESIAN_POINT('',(5.7225,-5.495,0.0));
#420=CARTESIAN_POINT('',(5.7225,-5.5,7.00780985974855E-016));
#421=VECTOR('',#504,1.0);
#422=CARTESIAN_POINT('',(-5.7225,-5.505,-7.00780985974855E-016));
#423=AXIS2_PLACEMENT_3D('',#505,#506,#507);
#424=CARTESIAN_POINT('',(-5.7225,-5.495,-7.00780985974855E-016));
#425=CARTESIAN_POINT('',(-5.7225,-5.5,-7.00780985974855E-016));
#426=VECTOR('',#508,1.0);
#427=AXIS2_PLACEMENT_3D('',#509,#510,#511);
#428=CARTESIAN_POINT('',(1.73205080756888,0.0,-3.0));
#429=CARTESIAN_POINT('',(3.46410161513775,0.0,-6.36331132563387E-016));
#430=CARTESIAN_POINT('',(2.59807621135332,0.0,-1.5));
#431=VECTOR('',#512,1.0);
#432=CARTESIAN_POINT('',(1.73205080756888,-8.0,-3.0));
#433=CARTESIAN_POINT('',(1.73205080756888,1.0,-3.0));
#434=VECTOR('',#513,1.0);
#435=CARTESIAN_POINT('',(3.46410161513775,-8.0,-6.36331132563387E-016));
#436=CARTESIAN_POINT('',(1.73205080756888,-8.0,-3.0));
#437=VECTOR('',#514,1.0);
#438=CARTESIAN_POINT('',(3.46410161513775,1.0,-6.36331132563387E-016));
#439=VECTOR('',#515,1.0);
#440=CARTESIAN_POINT('',(1.73205080756888,0.0,3.0));
#441=CARTESIAN_POINT('',(2.59807621135332,0.0,1.5));
#442=VECTOR('',#516,1.0);
#443=CARTESIAN_POINT('',(1.73205080756888,-8.0,3.0));
#444=CARTESIAN_POINT('',(3.46410161513775,-8.0,-6.36331132563387E-016));
#445=VECTOR('',#517,1.0);
#446=CARTESIAN_POINT('',(1.73205080756888,1.0,3.0));
#447=VECTOR('',#518,1.0);
#448=CARTESIAN_POINT('',(-1.73205080756888,0.0,3.0));
#449=CARTESIAN_POINT('',(8.28681747126775E-016,0.0,3.0));
#450=VECTOR('',#519,1.0);
#451=CARTESIAN_POINT('',(-1.73205080756888,-8.0,3.0));
#452=CARTESIAN_POINT('',(1.73205080756888,-8.0,3.0));
#453=VECTOR('',#520,1.0);
#454=CARTESIAN_POINT('',(-1.73205080756888,1.0,3.0));
#455=VECTOR('',#521,1.0);
#456=CARTESIAN_POINT('',(-3.46410161513775,0.0,2.12115047744981E-016));
#457=CARTESIAN_POINT('',(-2.59807621135332,0.0,1.5));
#458=VECTOR('',#522,1.0);
#459=CARTESIAN_POINT('',(-3.46410161513775,-8.0,2.12115047744981E-016));
#460=CARTESIAN_POINT('',(-1.73205080756888,-8.0,3.0));
#461=VECTOR('',#523,1.0);
#462=CARTESIAN_POINT('',(-3.46410161513775,1.0,2.12115047744981E-016));
#463=VECTOR('',#524,1.0);
#464=CARTESIAN_POINT('',(-1.73205080756888,0.0,-3.0));
#465=CARTESIAN_POINT('',(-3.33066907387547E-016,0.0,-3.0));
#466=VECTOR('',#525,1.0);
#467=CARTESIAN_POINT('',(-1.73205080756888,-8.0,-3.0));
#468=CARTESIAN_POINT('',(-1.73205080756888,1.0,-3.0));
#469=VECTOR('',#526,1.0);
#470=CARTESIAN_POINT('',(-1.73205080756888,-8.0,-3.0));
#471=VECTOR('',#527,1.0);
#472=CARTESIAN_POINT('',(-2.59807621135332,0.0,-1.5));
#473=VECTOR('',#528,1.0);
#474=CARTESIAN_POINT('',(-3.46410161513775,-8.0,2.12115047744981E-016));
#475=VECTOR('',#529,1.0);
#476=AXIS2_PLACEMENT_3D('',#530,#531,#532);
#477=AXIS2_PLACEMENT_3D('',#533,#534,#535);
#478=AXIS2_PLACEMENT_3D('',#536,#537,#538);
#479=AXIS2_PLACEMENT_3D('',#539,#540,#541);
#480=AXIS2_PLACEMENT_3D('',#542,#543,#544);
#481=AXIS2_PLACEMENT_3D('',#545,#546,#547);
#482=AXIS2_PLACEMENT_3D('',#548,#549,#550);
#483=DIRECTION('',(0.0312347523777211,0.999512076087079,3.82502762218259E-018));
#484=CARTESIAN_POINT('',(0.0,-9.144,0.0));
#485=DIRECTION('',(-0.0,1.0,0.0));
#486=DIRECTION('',(1.0,0.0,0.0));
#487=DIRECTION('',(0.0312347523777211,-0.999512076087079,3.82502762218259E-018));
#488=CARTESIAN_POINT('',(0.0,-5.505,0.0));
#489=DIRECTION('',(0.0,-1.0,0.0));
#490=DIRECTION('',(1.0,0.0,0.0));
#491=DIRECTION('',(0.717900393451055,0.69614583607375,8.79145383231746E-017));
#492=CARTESIAN_POINT('',(0.0,-10.0,0.0));
#493=DIRECTION('',(-0.0,1.0,0.0));
#494=DIRECTION('',(1.0,0.0,0.0));
#495=DIRECTION('',(0.717900393451055,-0.69614583607375,8.79145383231746E-017));
#496=DIRECTION('',(0.0312347523777211,0.999512076087079,3.82502762218259E-018));
#497=CARTESIAN_POINT('',(0.0,-5.495,0.0));
#498=DIRECTION('',(-0.0,1.0,0.0));
#499=DIRECTION('',(1.0,0.0,0.0));
#500=DIRECTION('',(0.0312347523777211,-0.999512076087079,3.82502762218259E-018));
#501=CARTESIAN_POINT('',(0.0,0.0,0.0));
#502=DIRECTION('',(-0.0,1.0,0.0));
#503=DIRECTION('',(1.0,0.0,0.0));
#504=DIRECTION('',(0.0,1.0,0.0));
#505=CARTESIAN_POINT('',(0.0,-5.505,0.0));
#506=DIRECTION('',(-0.0,1.0,0.0));
#507=DIRECTION('',(1.0,0.0,0.0));
#508=DIRECTION('',(-0.0,-1.0,-0.0));
#509=CARTESIAN_POINT('',(0.0,-5.495,0.0));
#510=DIRECTION('',(0.0,-1.0,0.0));
#511=DIRECTION('',(1.0,0.0,0.0));
#512=DIRECTION('',(0.5,0.0,0.866025403784438));
#513=DIRECTION('',(0.0,-1.0,0.0));
#514=DIRECTION('',(-0.5,-0.0,-0.866025403784438));
#515=DIRECTION('',(0.0,-1.0,0.0));
#516=DIRECTION('',(-0.5,0.0,0.866025403784439));
#517=DIRECTION('',(0.5,0.0,-0.866025403784439));
#518=DIRECTION('',(0.0,-1.0,0.0));
#519=DIRECTION('',(-1.0,0.0,2.56395024851142E-016));
#520=DIRECTION('',(1.0,0.0,-2.56395024851142E-016));
#521=DIRECTION('',(0.0,-1.0,0.0));
#522=DIRECTION('',(-0.5,-0.0,-0.866025403784439));
#523=DIRECTION('',(0.5,0.0,0.866025403784439));
#524=DIRECTION('',(0.0,-1.0,0.0));
#525=DIRECTION('',(1.0,0.0,0.0));
#526=DIRECTION('',(0.0,-1.0,0.0));
#527=DIRECTION('',(-1.0,-0.0,-0.0));
#528=DIRECTION('',(0.5,0.0,-0.866025403784439));
#529=DIRECTION('',(-0.5,0.0,0.866025403784439));
#530=CARTESIAN_POINT('',(0.0,0.0,0.0));
#531=DIRECTION('',(-0.0,1.0,0.0));
#532=DIRECTION('',(1.0,0.0,0.0));
#533=CARTESIAN_POINT('',(0.0,-5.495,0.0));
#534=DIRECTION('',(0.0,-1.0,0.0));
#535=DIRECTION('',(1.0,0.0,0.0));
#536=CARTESIAN_POINT('',(0.0,-5.505,0.0));
#537=DIRECTION('',(-0.0,1.0,0.0));
#538=DIRECTION('',(1.0,0.0,0.0));
#539=CARTESIAN_POINT('',(0.0,-5.505,0.0));
#540=DIRECTION('',(0.0,-1.0,0.0));
#541=DIRECTION('',(1.0,0.0,0.0));
#542=CARTESIAN_POINT('',(0.0,-5.495,0.0));
#543=DIRECTION('',(-0.0,1.0,0.0));
#544=DIRECTION('',(1.0,0.0,0.0));
#545=CARTESIAN_POINT('',(0.0,-9.144,0.0));
#546=DIRECTION('',(-0.0,1.0,0.0));
#547=DIRECTION('',(1.0,0.0,0.0));
#548=CARTESIAN_POINT('',(0.0,-10.0,0.0));
#549=DIRECTION('',(-0.0,1.0,0.0));
#550=DIRECTION('',(1.0,0.0,0.0));
ENDSEC;
END-ISO-10303-21;
