ISO-10303-21;
HEADER;
FILE_DESCRIPTION(('STEP AP214'),'1');
FILE_NAME('C:/PartsXMLTools/RobotParts/Generated/STEP_SAT/CAD/Temp/0127_12_08.stp','2016-07-07T14:22:31',('TraceParts'),('TraceParts S.A.'),'Spatial InterOp 3D',' ',' ');
FILE_SCHEMA(('automotive_design'));
ENDSEC;
DATA;
#1=PRODUCT_DEFINITION_CONTEXT('',#9,'design');
#2=APPLICATION_PROTOCOL_DEFINITION('INTERNATIONAL STANDARD','automotive_design',1994,#9);
#3=PRODUCT_CATEGORY_RELATIONSHIP('NONE','NONE',#10,#11);
#4=SHAPE_DEFINITION_REPRESENTATION(#12,#13);
#5= (GEOMETRIC_REPRESENTATION_CONTEXT(3)GLOBAL_UNCERTAINTY_ASSIGNED_CONTEXT((#16))GLOBAL_UNIT_ASSIGNED_CONTEXT((#18,#19,#20))REPRESENTATION_CONTEXT('NONE','WORKSPACE'));
#9=APPLICATION_CONTEXT(' ');
#10=PRODUCT_CATEGORY('part','NONE');
#11=PRODUCT_RELATED_PRODUCT_CATEGORY('detail',' ',(#22));
#12=PRODUCT_DEFINITION_SHAPE('NONE','NONE',#23);
#13=ADVANCED_BREP_SHAPE_REPRESENTATION('0127-12-08',(#24,#25),#5);
#16=UNCERTAINTY_MEASURE_WITH_UNIT(LENGTH_MEASURE(1.0E-006),#18,'','');
#18= (CONVERSION_BASED_UNIT('MILLIMETRE',#28)LENGTH_UNIT()NAMED_UNIT(#31));
#19= (NAMED_UNIT(#33)PLANE_ANGLE_UNIT()SI_UNIT($,.RADIAN.));
#20= (NAMED_UNIT(#33)SOLID_ANGLE_UNIT()SI_UNIT($,.STERADIAN.));
#22=PRODUCT('0127-12-08','0127-12-08','PART-0127-12-08-DESC',(#39));
#23=PRODUCT_DEFINITION('NONE','NONE',#40,#1);
#24=MANIFOLD_SOLID_BREP('0127-12-08',#41);
#25=AXIS2_PLACEMENT_3D('',#42,#43,#44);
#28=LENGTH_MEASURE_WITH_UNIT(LENGTH_MEASURE(1.0),#45);
#31=DIMENSIONAL_EXPONENTS(1.0,0.0,0.0,0.0,0.0,0.0,0.0);
#33=DIMENSIONAL_EXPONENTS(0.0,0.0,0.0,0.0,0.0,0.0,0.0);
#39=PRODUCT_CONTEXT('',#9,'mechanical');
#40=PRODUCT_DEFINITION_FORMATION_WITH_SPECIFIED_SOURCE(' ','NONE',#22,.NOT_KNOWN.);
#41=CLOSED_SHELL('',(#46,#47,#48,#49,#50,#51,#52,#53,#54,#55,#56,#57,#58,#59,#60,#61,#62,#63,#64,#65,#66,#67));
#42=CARTESIAN_POINT('',(0.0,0.0,0.0));
#43=DIRECTION('',(0.0,0.0,1.0));
#44=DIRECTION('',(1.0,0.0,0.0));
#45= (NAMED_UNIT(#31)LENGTH_UNIT()SI_UNIT(.MILLI.,.METRE.));
#46=ADVANCED_FACE('',(#69),#70,.T.);
#47=ADVANCED_FACE('',(#71),#72,.T.);
#48=ADVANCED_FACE('',(#73),#74,.T.);
#49=ADVANCED_FACE('',(#75),#76,.T.);
#50=ADVANCED_FACE('',(#77),#78,.T.);
#51=ADVANCED_FACE('',(#79),#80,.T.);
#52=ADVANCED_FACE('',(#81),#82,.T.);
#53=ADVANCED_FACE('',(#83),#84,.T.);
#54=ADVANCED_FACE('',(#85,#86),#87,.T.);
#55=ADVANCED_FACE('',(#88),#89,.T.);
#56=ADVANCED_FACE('',(#90),#91,.T.);
#57=ADVANCED_FACE('',(#92),#93,.F.);
#58=ADVANCED_FACE('',(#94),#95,.T.);
#59=ADVANCED_FACE('',(#96),#97,.T.);
#60=ADVANCED_FACE('',(#98),#99,.T.);
#61=ADVANCED_FACE('',(#100),#101,.T.);
#62=ADVANCED_FACE('',(#102),#103,.F.);
#63=ADVANCED_FACE('',(#104),#105,.F.);
#64=ADVANCED_FACE('',(#106),#107,.F.);
#65=ADVANCED_FACE('',(#108,#109),#110,.F.);
#66=ADVANCED_FACE('',(#111),#112,.T.);
#67=ADVANCED_FACE('',(#113),#114,.T.);
#69=FACE_OUTER_BOUND('',#115,.T.);
#70=TOROIDAL_SURFACE('',#116,5.7,0.15);
#71=FACE_OUTER_BOUND('',#117,.T.);
#72=TOROIDAL_SURFACE('',#118,5.7,0.15);
#73=FACE_OUTER_BOUND('',#119,.T.);
#74=TOROIDAL_SURFACE('',#120,5.7,0.15);
#75=FACE_OUTER_BOUND('',#121,.T.);
#76=TOROIDAL_SURFACE('',#122,5.7,0.15);
#77=FACE_OUTER_BOUND('',#123,.T.);
#78=TOROIDAL_SURFACE('',#124,5.7,0.15);
#79=FACE_OUTER_BOUND('',#125,.T.);
#80=TOROIDAL_SURFACE('',#126,5.7,0.15);
#81=FACE_OUTER_BOUND('',#127,.T.);
#82=TOROIDAL_SURFACE('',#128,3.6,0.3);
#83=FACE_OUTER_BOUND('',#129,.T.);
#84=TOROIDAL_SURFACE('',#130,3.6,0.3);
#85=FACE_OUTER_BOUND('',#131,.T.);
#86=FACE_BOUND('',#132,.T.);
#87=PLANE('',#133);
#88=FACE_OUTER_BOUND('',#134,.T.);
#89=TOROIDAL_SURFACE('',#135,4.7,1.1);
#90=FACE_OUTER_BOUND('',#136,.T.);
#91=TOROIDAL_SURFACE('',#137,4.7,1.1);
#92=FACE_OUTER_BOUND('',#138,.T.);
#93=CYLINDRICAL_SURFACE('',#139,3.6);
#94=FACE_OUTER_BOUND('',#140,.T.);
#95=TOROIDAL_SURFACE('',#141,3.6,0.3);
#96=FACE_OUTER_BOUND('',#142,.T.);
#97=CYLINDRICAL_SURFACE('',#143,3.9);
#98=FACE_OUTER_BOUND('',#144,.T.);
#99=CYLINDRICAL_SURFACE('',#145,3.9);
#100=FACE_OUTER_BOUND('',#146,.T.);
#101=TOROIDAL_SURFACE('',#147,3.6,0.3);
#102=FACE_OUTER_BOUND('',#148,.T.);
#103=CYLINDRICAL_SURFACE('',#149,3.6);
#104=FACE_OUTER_BOUND('',#150,.T.);
#105=TOROIDAL_SURFACE('',#151,4.7,0.8);
#106=FACE_OUTER_BOUND('',#152,.T.);
#107=TOROIDAL_SURFACE('',#153,4.7,0.8);
#108=FACE_OUTER_BOUND('',#154,.T.);
#109=FACE_BOUND('',#155,.T.);
#110=PLANE('',#156);
#111=FACE_OUTER_BOUND('',#157,.T.);
#112=TOROIDAL_SURFACE('',#158,5.7,0.15);
#113=FACE_OUTER_BOUND('',#159,.T.);
#114=TOROIDAL_SURFACE('',#160,5.7,0.15);
#115=EDGE_LOOP('',(#161,#162,#163,#164));
#116=AXIS2_PLACEMENT_3D('',#165,#166,#167);
#117=EDGE_LOOP('',(#168,#169,#170,#171));
#118=AXIS2_PLACEMENT_3D('',#172,#173,#174);
#119=EDGE_LOOP('',(#175,#176,#177,#178));
#120=AXIS2_PLACEMENT_3D('',#179,#180,#181);
#121=EDGE_LOOP('',(#182,#183,#184,#185));
#122=AXIS2_PLACEMENT_3D('',#186,#187,#188);
#123=EDGE_LOOP('',(#189,#190,#191,#192));
#124=AXIS2_PLACEMENT_3D('',#193,#194,#195);
#125=EDGE_LOOP('',(#196,#197,#198,#199));
#126=AXIS2_PLACEMENT_3D('',#200,#201,#202);
#127=EDGE_LOOP('',(#203,#204,#205,#206));
#128=AXIS2_PLACEMENT_3D('',#207,#208,#209);
#129=EDGE_LOOP('',(#210,#211,#212,#213));
#130=AXIS2_PLACEMENT_3D('',#214,#215,#216);
#131=EDGE_LOOP('',(#217,#218,#219,#220));
#132=EDGE_LOOP('',(#221,#222));
#133=AXIS2_PLACEMENT_3D('',#223,#224,#225);
#134=EDGE_LOOP('',(#226,#227,#228,#229));
#135=AXIS2_PLACEMENT_3D('',#230,#231,#232);
#136=EDGE_LOOP('',(#233,#234,#235,#236));
#137=AXIS2_PLACEMENT_3D('',#237,#238,#239);
#138=EDGE_LOOP('',(#240,#241,#242,#243,#244));
#139=AXIS2_PLACEMENT_3D('',#245,#246,#247);
#140=EDGE_LOOP('',(#248,#249,#250,#251));
#141=AXIS2_PLACEMENT_3D('',#252,#253,#254);
#142=EDGE_LOOP('',(#255,#256,#257,#258,#259));
#143=AXIS2_PLACEMENT_3D('',#260,#261,#262);
#144=EDGE_LOOP('',(#263,#264,#265,#266,#267));
#145=AXIS2_PLACEMENT_3D('',#268,#269,#270);
#146=EDGE_LOOP('',(#271,#272,#273,#274));
#147=AXIS2_PLACEMENT_3D('',#275,#276,#277);
#148=EDGE_LOOP('',(#278,#279,#280,#281,#282));
#149=AXIS2_PLACEMENT_3D('',#283,#284,#285);
#150=EDGE_LOOP('',(#286,#287,#288,#289));
#151=AXIS2_PLACEMENT_3D('',#290,#291,#292);
#152=EDGE_LOOP('',(#293,#294,#295,#296));
#153=AXIS2_PLACEMENT_3D('',#297,#298,#299);
#154=EDGE_LOOP('',(#300,#301,#302,#303));
#155=EDGE_LOOP('',(#304,#305));
#156=AXIS2_PLACEMENT_3D('',#306,#307,#308);
#157=EDGE_LOOP('',(#309,#310,#311,#312));
#158=AXIS2_PLACEMENT_3D('',#313,#314,#315);
#159=EDGE_LOOP('',(#316,#317,#318,#319));
#160=AXIS2_PLACEMENT_3D('',#320,#321,#322);
#161=ORIENTED_EDGE('',*,*,#323,.F.);
#162=ORIENTED_EDGE('',*,*,#324,.T.);
#163=ORIENTED_EDGE('',*,*,#325,.T.);
#164=ORIENTED_EDGE('',*,*,#326,.T.);
#165=CARTESIAN_POINT('',(0.15,0.0,0.0));
#166=DIRECTION('',(-1.0,-0.0,0.0));
#167=DIRECTION('',(0.0,-0.999967182795867,-0.00810144007550373));
#168=ORIENTED_EDGE('',*,*,#327,.F.);
#169=ORIENTED_EDGE('',*,*,#328,.T.);
#170=ORIENTED_EDGE('',*,*,#329,.T.);
#171=ORIENTED_EDGE('',*,*,#330,.F.);
#172=CARTESIAN_POINT('',(0.15,0.0,0.0));
#173=DIRECTION('',(-1.0,0.0,0.0));
#174=DIRECTION('',(0.0,0.999967182795867,0.00810144007550373));
#175=ORIENTED_EDGE('',*,*,#331,.F.);
#176=ORIENTED_EDGE('',*,*,#326,.F.);
#177=ORIENTED_EDGE('',*,*,#332,.T.);
#178=ORIENTED_EDGE('',*,*,#328,.F.);
#179=CARTESIAN_POINT('',(0.15,0.0,0.0));
#180=DIRECTION('',(-1.0,0.0,0.0));
#181=DIRECTION('',(0.0,0.999967182795867,0.00810144007550373));
#182=ORIENTED_EDGE('',*,*,#333,.F.);
#183=ORIENTED_EDGE('',*,*,#330,.T.);
#184=ORIENTED_EDGE('',*,*,#334,.T.);
#185=ORIENTED_EDGE('',*,*,#324,.F.);
#186=CARTESIAN_POINT('',(0.15,0.0,0.0));
#187=DIRECTION('',(-1.0,-0.0,0.0));
#188=DIRECTION('',(0.0,-0.999967182795867,-0.00810144007550373));
#189=ORIENTED_EDGE('',*,*,#333,.T.);
#190=ORIENTED_EDGE('',*,*,#335,.F.);
#191=ORIENTED_EDGE('',*,*,#336,.F.);
#192=ORIENTED_EDGE('',*,*,#337,.T.);
#193=CARTESIAN_POINT('',(0.15,0.0,0.0));
#194=DIRECTION('',(-1.0,-0.0,0.0));
#195=DIRECTION('',(0.0,-0.999967182795867,-0.00810144007550373));
#196=ORIENTED_EDGE('',*,*,#331,.T.);
#197=ORIENTED_EDGE('',*,*,#338,.F.);
#198=ORIENTED_EDGE('',*,*,#339,.F.);
#199=ORIENTED_EDGE('',*,*,#340,.F.);
#200=CARTESIAN_POINT('',(0.15,0.0,0.0));
#201=DIRECTION('',(-1.0,0.0,0.0));
#202=DIRECTION('',(0.0,0.999967182795867,0.00810144007550373));
#203=ORIENTED_EDGE('',*,*,#341,.F.);
#204=ORIENTED_EDGE('',*,*,#342,.F.);
#205=ORIENTED_EDGE('',*,*,#343,.T.);
#206=ORIENTED_EDGE('',*,*,#344,.T.);
#207=CARTESIAN_POINT('',(25.7,0.0,0.0));
#208=DIRECTION('',(-1.0,-0.0,0.0));
#209=DIRECTION('',(0.0,-0.999918867935669,-0.0127380354156496));
#210=ORIENTED_EDGE('',*,*,#345,.F.);
#211=ORIENTED_EDGE('',*,*,#346,.F.);
#212=ORIENTED_EDGE('',*,*,#347,.T.);
#213=ORIENTED_EDGE('',*,*,#348,.T.);
#214=CARTESIAN_POINT('',(25.7,0.0,0.0));
#215=DIRECTION('',(-1.0,0.0,0.0));
#216=DIRECTION('',(0.0,0.999918867935669,0.0127380354156496));
#217=ORIENTED_EDGE('',*,*,#336,.T.);
#218=ORIENTED_EDGE('',*,*,#349,.T.);
#219=ORIENTED_EDGE('',*,*,#339,.T.);
#220=ORIENTED_EDGE('',*,*,#350,.T.);
#221=ORIENTED_EDGE('',*,*,#351,.F.);
#222=ORIENTED_EDGE('',*,*,#352,.T.);
#223=CARTESIAN_POINT('',(0.0,0.0,0.0));
#224=DIRECTION('',(-1.0,0.0,0.0));
#225=DIRECTION('',(0.0,0.0,1.0));
#226=ORIENTED_EDGE('',*,*,#353,.T.);
#227=ORIENTED_EDGE('',*,*,#354,.F.);
#228=ORIENTED_EDGE('',*,*,#352,.F.);
#229=ORIENTED_EDGE('',*,*,#355,.T.);
#230=CARTESIAN_POINT('',(1.1,0.0,0.0));
#231=DIRECTION('',(-1.0,0.0,0.0));
#232=DIRECTION('',(0.0,1.0,0.0));
#233=ORIENTED_EDGE('',*,*,#351,.T.);
#234=ORIENTED_EDGE('',*,*,#354,.T.);
#235=ORIENTED_EDGE('',*,*,#356,.F.);
#236=ORIENTED_EDGE('',*,*,#355,.F.);
#237=CARTESIAN_POINT('',(1.1,0.0,0.0));
#238=DIRECTION('',(-1.0,0.0,0.0));
#239=DIRECTION('',(0.0,1.0,0.0));
#240=ORIENTED_EDGE('',*,*,#357,.F.);
#241=ORIENTED_EDGE('',*,*,#356,.T.);
#242=ORIENTED_EDGE('',*,*,#358,.T.);
#243=ORIENTED_EDGE('',*,*,#359,.F.);
#244=ORIENTED_EDGE('',*,*,#348,.F.);
#245=CARTESIAN_POINT('',(27.3,0.0,0.0));
#246=DIRECTION('',(1.0,-0.0,0.0));
#247=DIRECTION('',(0.0,1.0,0.0));
#248=ORIENTED_EDGE('',*,*,#345,.T.);
#249=ORIENTED_EDGE('',*,*,#359,.T.);
#250=ORIENTED_EDGE('',*,*,#343,.F.);
#251=ORIENTED_EDGE('',*,*,#360,.F.);
#252=CARTESIAN_POINT('',(25.7,0.0,0.0));
#253=DIRECTION('',(-1.0,0.0,0.0));
#254=DIRECTION('',(0.0,0.999918867935669,0.0127380354156496));
#255=ORIENTED_EDGE('',*,*,#361,.T.);
#256=ORIENTED_EDGE('',*,*,#362,.F.);
#257=ORIENTED_EDGE('',*,*,#363,.F.);
#258=ORIENTED_EDGE('',*,*,#346,.T.);
#259=ORIENTED_EDGE('',*,*,#360,.T.);
#260=CARTESIAN_POINT('',(27.3,0.0,0.0));
#261=DIRECTION('',(1.0,-0.0,0.0));
#262=DIRECTION('',(0.0,1.0,0.0));
#263=ORIENTED_EDGE('',*,*,#363,.T.);
#264=ORIENTED_EDGE('',*,*,#364,.T.);
#265=ORIENTED_EDGE('',*,*,#361,.F.);
#266=ORIENTED_EDGE('',*,*,#342,.T.);
#267=ORIENTED_EDGE('',*,*,#365,.T.);
#268=CARTESIAN_POINT('',(27.3,0.0,0.0));
#269=DIRECTION('',(1.0,-0.0,0.0));
#270=DIRECTION('',(0.0,1.0,0.0));
#271=ORIENTED_EDGE('',*,*,#341,.T.);
#272=ORIENTED_EDGE('',*,*,#366,.T.);
#273=ORIENTED_EDGE('',*,*,#347,.F.);
#274=ORIENTED_EDGE('',*,*,#365,.F.);
#275=CARTESIAN_POINT('',(25.7,0.0,0.0));
#276=DIRECTION('',(-1.0,-0.0,0.0));
#277=DIRECTION('',(0.0,-0.999918867935669,-0.0127380354156496));
#278=ORIENTED_EDGE('',*,*,#358,.F.);
#279=ORIENTED_EDGE('',*,*,#353,.F.);
#280=ORIENTED_EDGE('',*,*,#357,.T.);
#281=ORIENTED_EDGE('',*,*,#366,.F.);
#282=ORIENTED_EDGE('',*,*,#344,.F.);
#283=CARTESIAN_POINT('',(27.3,0.0,0.0));
#284=DIRECTION('',(1.0,-0.0,0.0));
#285=DIRECTION('',(0.0,1.0,0.0));
#286=ORIENTED_EDGE('',*,*,#367,.T.);
#287=ORIENTED_EDGE('',*,*,#368,.F.);
#288=ORIENTED_EDGE('',*,*,#364,.F.);
#289=ORIENTED_EDGE('',*,*,#369,.T.);
#290=CARTESIAN_POINT('',(1.1,0.0,0.0));
#291=DIRECTION('',(-1.0,0.0,0.0));
#292=DIRECTION('',(0.0,1.0,0.0));
#293=ORIENTED_EDGE('',*,*,#362,.T.);
#294=ORIENTED_EDGE('',*,*,#368,.T.);
#295=ORIENTED_EDGE('',*,*,#370,.F.);
#296=ORIENTED_EDGE('',*,*,#369,.F.);
#297=CARTESIAN_POINT('',(1.1,0.0,0.0));
#298=DIRECTION('',(-1.0,0.0,0.0));
#299=DIRECTION('',(0.0,1.0,0.0));
#300=ORIENTED_EDGE('',*,*,#334,.F.);
#301=ORIENTED_EDGE('',*,*,#329,.F.);
#302=ORIENTED_EDGE('',*,*,#332,.F.);
#303=ORIENTED_EDGE('',*,*,#325,.F.);
#304=ORIENTED_EDGE('',*,*,#367,.F.);
#305=ORIENTED_EDGE('',*,*,#370,.T.);
#306=CARTESIAN_POINT('',(0.3,0.0,0.0));
#307=DIRECTION('',(-1.0,0.0,0.0));
#308=DIRECTION('',(0.0,0.0,1.0));
#309=ORIENTED_EDGE('',*,*,#327,.T.);
#310=ORIENTED_EDGE('',*,*,#337,.F.);
#311=ORIENTED_EDGE('',*,*,#350,.F.);
#312=ORIENTED_EDGE('',*,*,#338,.T.);
#313=CARTESIAN_POINT('',(0.15,0.0,0.0));
#314=DIRECTION('',(-1.0,0.0,0.0));
#315=DIRECTION('',(0.0,0.999967182795867,0.00810144007550373));
#316=ORIENTED_EDGE('',*,*,#323,.T.);
#317=ORIENTED_EDGE('',*,*,#340,.T.);
#318=ORIENTED_EDGE('',*,*,#349,.F.);
#319=ORIENTED_EDGE('',*,*,#335,.T.);
#320=CARTESIAN_POINT('',(0.15,0.0,0.0));
#321=DIRECTION('',(-1.0,-0.0,0.0));
#322=DIRECTION('',(0.0,-0.999967182795867,-0.00810144007550373));
#323=EDGE_CURVE('',#371,#372,#373,.T.);
#324=EDGE_CURVE('',#371,#374,#375,.T.);
#325=EDGE_CURVE('',#374,#376,#377,.T.);
#326=EDGE_CURVE('',#376,#372,#378,.T.);
#327=EDGE_CURVE('',#379,#380,#381,.T.);
#328=EDGE_CURVE('',#379,#382,#383,.T.);
#329=EDGE_CURVE('',#382,#384,#385,.T.);
#330=EDGE_CURVE('',#380,#384,#386,.T.);
#331=EDGE_CURVE('',#372,#379,#387,.T.);
#332=EDGE_CURVE('',#376,#382,#388,.T.);
#333=EDGE_CURVE('',#380,#371,#389,.T.);
#334=EDGE_CURVE('',#384,#374,#390,.T.);
#335=EDGE_CURVE('',#391,#371,#392,.T.);
#336=EDGE_CURVE('',#393,#391,#394,.T.);
#337=EDGE_CURVE('',#393,#380,#395,.T.);
#338=EDGE_CURVE('',#396,#379,#397,.T.);
#339=EDGE_CURVE('',#398,#396,#399,.T.);
#340=EDGE_CURVE('',#372,#398,#400,.T.);
#341=EDGE_CURVE('',#401,#402,#403,.T.);
#342=EDGE_CURVE('',#404,#401,#405,.T.);
#343=EDGE_CURVE('',#404,#406,#407,.T.);
#344=EDGE_CURVE('',#406,#402,#408,.T.);
#345=EDGE_CURVE('',#409,#410,#411,.T.);
#346=EDGE_CURVE('',#412,#409,#413,.T.);
#347=EDGE_CURVE('',#412,#414,#415,.T.);
#348=EDGE_CURVE('',#414,#410,#416,.T.);
#349=EDGE_CURVE('',#391,#398,#417,.T.);
#350=EDGE_CURVE('',#396,#393,#418,.T.);
#351=EDGE_CURVE('',#419,#420,#421,.T.);
#352=EDGE_CURVE('',#419,#420,#422,.T.);
#353=EDGE_CURVE('',#423,#424,#425,.T.);
#354=EDGE_CURVE('',#420,#424,#426,.T.);
#355=EDGE_CURVE('',#419,#423,#427,.T.);
#356=EDGE_CURVE('',#423,#424,#428,.T.);
#357=EDGE_CURVE('',#423,#414,#429,.T.);
#358=EDGE_CURVE('',#424,#406,#430,.T.);
#359=EDGE_CURVE('',#410,#406,#431,.T.);
#360=EDGE_CURVE('',#409,#404,#432,.T.);
#361=EDGE_CURVE('',#404,#433,#434,.T.);
#362=EDGE_CURVE('',#435,#433,#436,.T.);
#363=EDGE_CURVE('',#412,#435,#437,.T.);
#364=EDGE_CURVE('',#435,#433,#438,.T.);
#365=EDGE_CURVE('',#401,#412,#439,.T.);
#366=EDGE_CURVE('',#402,#414,#440,.T.);
#367=EDGE_CURVE('',#441,#442,#443,.T.);
#368=EDGE_CURVE('',#433,#442,#444,.T.);
#369=EDGE_CURVE('',#435,#441,#445,.T.);
#370=EDGE_CURVE('',#441,#442,#446,.T.);
#371=VERTEX_POINT('',#447);
#372=VERTEX_POINT('',#448);
#373=CIRCLE('',#449,5.85);
#374=VERTEX_POINT('',#450);
#375=CIRCLE('',#451,0.15);
#376=VERTEX_POINT('',#452);
#377=CIRCLE('',#453,5.700000001124);
#378=CIRCLE('',#454,0.15);
#379=VERTEX_POINT('',#455);
#380=VERTEX_POINT('',#456);
#381=CIRCLE('',#457,5.85);
#382=VERTEX_POINT('',#458);
#383=CIRCLE('',#459,0.15);
#384=VERTEX_POINT('',#460);
#385=CIRCLE('',#461,5.700000001124);
#386=CIRCLE('',#462,0.15);
#387=CIRCLE('',#463,5.85);
#388=CIRCLE('',#464,5.700000001124);
#389=CIRCLE('',#465,5.85);
#390=CIRCLE('',#466,5.700000001124);
#391=VERTEX_POINT('',#467);
#392=CIRCLE('',#468,0.15);
#393=VERTEX_POINT('',#469);
#394=CIRCLE('',#470,5.699999962087);
#395=CIRCLE('',#471,0.15);
#396=VERTEX_POINT('',#472);
#397=CIRCLE('',#473,0.15);
#398=VERTEX_POINT('',#474);
#399=CIRCLE('',#475,5.699999962087);
#400=CIRCLE('',#476,0.15);
#401=VERTEX_POINT('',#477);
#402=VERTEX_POINT('',#478);
#403=CIRCLE('',#479,0.3);
#404=VERTEX_POINT('',#480);
#405=CIRCLE('',#481,3.9);
#406=VERTEX_POINT('',#482);
#407=CIRCLE('',#483,0.3);
#408=CIRCLE('',#484,3.6);
#409=VERTEX_POINT('',#485);
#410=VERTEX_POINT('',#486);
#411=CIRCLE('',#487,0.3);
#412=VERTEX_POINT('',#488);
#413=CIRCLE('',#489,3.9);
#414=VERTEX_POINT('',#490);
#415=CIRCLE('',#491,0.3);
#416=CIRCLE('',#492,3.6);
#417=CIRCLE('',#493,5.699999962087);
#418=CIRCLE('',#494,5.699999962087);
#419=VERTEX_POINT('',#495);
#420=VERTEX_POINT('',#496);
#421=CIRCLE('',#497,4.7);
#422=CIRCLE('',#498,4.7);
#423=VERTEX_POINT('',#499);
#424=VERTEX_POINT('',#500);
#425=CIRCLE('',#501,3.6);
#426=CIRCLE('',#502,1.1);
#427=CIRCLE('',#503,1.1);
#428=CIRCLE('',#504,3.6);
#429=LINE('',#505,#506);
#430=LINE('',#507,#508);
#431=CIRCLE('',#509,3.6);
#432=CIRCLE('',#510,3.9);
#433=VERTEX_POINT('',#511);
#434=LINE('',#512,#513);
#435=VERTEX_POINT('',#514);
#436=CIRCLE('',#515,3.9);
#437=LINE('',#516,#517);
#438=CIRCLE('',#518,3.9);
#439=CIRCLE('',#519,3.9);
#440=CIRCLE('',#520,3.6);
#441=VERTEX_POINT('',#521);
#442=VERTEX_POINT('',#522);
#443=CIRCLE('',#523,4.7);
#444=CIRCLE('',#524,0.8);
#445=CIRCLE('',#525,0.8);
#446=CIRCLE('',#526,4.7);
#447=CARTESIAN_POINT('',(0.15,5.84980801935582,0.0473934244416976));
#448=CARTESIAN_POINT('',(0.15,5.85,0.0));
#449=AXIS2_PLACEMENT_3D('',#527,#528,#529);
#450=CARTESIAN_POINT('',(0.3,5.69981294306041,0.0461782084394779));
#451=AXIS2_PLACEMENT_3D('',#530,#531,#532);
#452=CARTESIAN_POINT('',(0.3,5.700000001124,0.0));
#453=AXIS2_PLACEMENT_3D('',#533,#534,#535);
#454=AXIS2_PLACEMENT_3D('',#536,#537,#538);
#455=CARTESIAN_POINT('',(0.15,-5.84980801935582,-0.0473934244416976));
#456=CARTESIAN_POINT('',(0.15,-5.85,0.0));
#457=AXIS2_PLACEMENT_3D('',#539,#540,#541);
#458=CARTESIAN_POINT('',(0.3,-5.69981294306041,-0.0461782084394779));
#459=AXIS2_PLACEMENT_3D('',#542,#543,#544);
#460=CARTESIAN_POINT('',(0.3,-5.700000001124,0.0));
#461=AXIS2_PLACEMENT_3D('',#545,#546,#547);
#462=AXIS2_PLACEMENT_3D('',#548,#549,#550);
#463=AXIS2_PLACEMENT_3D('',#551,#552,#553);
#464=AXIS2_PLACEMENT_3D('',#554,#555,#556);
#465=AXIS2_PLACEMENT_3D('',#557,#558,#559);
#466=AXIS2_PLACEMENT_3D('',#560,#561,#562);
#467=CARTESIAN_POINT('',(0.0,5.69981290402469,0.046178208123222));
#468=AXIS2_PLACEMENT_3D('',#563,#564,#565);
#469=CARTESIAN_POINT('',(0.0,-5.699999962087,0.0));
#470=AXIS2_PLACEMENT_3D('',#566,#567,#568);
#471=AXIS2_PLACEMENT_3D('',#569,#570,#571);
#472=CARTESIAN_POINT('',(0.0,-5.69981290402469,-0.046178208123222));
#473=AXIS2_PLACEMENT_3D('',#572,#573,#574);
#474=CARTESIAN_POINT('',(0.0,5.699999962087,0.0));
#475=AXIS2_PLACEMENT_3D('',#575,#576,#577);
#476=AXIS2_PLACEMENT_3D('',#578,#579,#580);
#477=CARTESIAN_POINT('',(25.7,3.89968358494911,0.0496783381210336));
#478=CARTESIAN_POINT('',(26.0,3.59970792456841,0.0458569274963387));
#479=AXIS2_PLACEMENT_3D('',#581,#582,#583);
#480=CARTESIAN_POINT('',(25.7,-3.9,0.0));
#481=AXIS2_PLACEMENT_3D('',#584,#585,#586);
#482=CARTESIAN_POINT('',(26.0,-3.6,0.0));
#483=AXIS2_PLACEMENT_3D('',#587,#588,#589);
#484=AXIS2_PLACEMENT_3D('',#590,#591,#592);
#485=CARTESIAN_POINT('',(25.7,-3.89968358494911,-0.0496783381210336));
#486=CARTESIAN_POINT('',(26.0,-3.59970792456841,-0.0458569274963387));
#487=AXIS2_PLACEMENT_3D('',#593,#594,#595);
#488=CARTESIAN_POINT('',(25.7,3.9,0.0));
#489=AXIS2_PLACEMENT_3D('',#596,#597,#598);
#490=CARTESIAN_POINT('',(26.0,3.6,0.0));
#491=AXIS2_PLACEMENT_3D('',#599,#600,#601);
#492=AXIS2_PLACEMENT_3D('',#602,#603,#604);
#493=AXIS2_PLACEMENT_3D('',#605,#606,#607);
#494=AXIS2_PLACEMENT_3D('',#608,#609,#610);
#495=CARTESIAN_POINT('',(0.0,4.7,0.0));
#496=CARTESIAN_POINT('',(0.0,-4.7,0.0));
#497=AXIS2_PLACEMENT_3D('',#611,#612,#613);
#498=AXIS2_PLACEMENT_3D('',#614,#615,#616);
#499=CARTESIAN_POINT('',(1.1,3.6,0.0));
#500=CARTESIAN_POINT('',(1.1,-3.6,0.0));
#501=AXIS2_PLACEMENT_3D('',#617,#618,#619);
#502=AXIS2_PLACEMENT_3D('',#620,#621,#622);
#503=AXIS2_PLACEMENT_3D('',#623,#624,#625);
#504=AXIS2_PLACEMENT_3D('',#626,#627,#628);
#505=CARTESIAN_POINT('',(1.1,3.6,0.0));
#506=VECTOR('',#629,24.9);
#507=CARTESIAN_POINT('',(1.1,-3.6,0.0));
#508=VECTOR('',#630,24.9);
#509=AXIS2_PLACEMENT_3D('',#631,#632,#633);
#510=AXIS2_PLACEMENT_3D('',#634,#635,#636);
#511=CARTESIAN_POINT('',(1.1,-3.9,0.0));
#512=CARTESIAN_POINT('',(25.7,-3.9,-5.25621213221E-014));
#513=VECTOR('',#637,24.6);
#514=CARTESIAN_POINT('',(1.1,3.9,0.0));
#515=AXIS2_PLACEMENT_3D('',#638,#639,#640);
#516=CARTESIAN_POINT('',(25.7,3.9,5.21284404531E-014));
#517=VECTOR('',#641,24.6);
#518=AXIS2_PLACEMENT_3D('',#642,#643,#644);
#519=AXIS2_PLACEMENT_3D('',#645,#646,#647);
#520=AXIS2_PLACEMENT_3D('',#648,#649,#650);
#521=CARTESIAN_POINT('',(0.3,4.7,0.0));
#522=CARTESIAN_POINT('',(0.3,-4.7,0.0));
#523=AXIS2_PLACEMENT_3D('',#651,#652,#653);
#524=AXIS2_PLACEMENT_3D('',#654,#655,#656);
#525=AXIS2_PLACEMENT_3D('',#657,#658,#659);
#526=AXIS2_PLACEMENT_3D('',#660,#661,#662);
#527=CARTESIAN_POINT('',(0.15,0.0,0.0));
#528=DIRECTION('',(-1.0,-0.0,0.0));
#529=DIRECTION('',(0.0,0.0,1.0));
#530=CARTESIAN_POINT('',(0.15,5.69981294193644,0.046178208430372));
#531=DIRECTION('',(-0.0,0.00810144007550386,-0.999967182795867));
#532=DIRECTION('',(0.0,0.999967182795867,0.00810144007550386));
#533=CARTESIAN_POINT('',(0.3,0.0,0.0));
#534=DIRECTION('',(-1.0,0.0,0.0));
#535=DIRECTION('',(0.0,-1.0,0.0));
#536=CARTESIAN_POINT('',(0.15,5.7,0.0));
#537=DIRECTION('',(0.0,0.0,1.0));
#538=DIRECTION('',(1.0,0.0,0.0));
#539=CARTESIAN_POINT('',(0.15,0.0,0.0));
#540=DIRECTION('',(-1.0,0.0,0.0));
#541=DIRECTION('',(0.0,-0.0,1.0));
#542=CARTESIAN_POINT('',(0.15,-5.69981294193644,-0.046178208430372));
#543=DIRECTION('',(0.0,-0.00810144007550386,0.999967182795867));
#544=DIRECTION('',(0.0,-0.999967182795867,-0.00810144007550386));
#545=CARTESIAN_POINT('',(0.3,0.0,0.0));
#546=DIRECTION('',(-1.0,0.0,0.0));
#547=DIRECTION('',(0.0,1.0,0.0));
#548=CARTESIAN_POINT('',(0.15,-5.7,0.0));
#549=DIRECTION('',(0.0,0.0,1.0));
#550=DIRECTION('',(-1.0,0.0,0.0));
#551=CARTESIAN_POINT('',(0.15,0.0,0.0));
#552=DIRECTION('',(-1.0,0.0,0.0));
#553=DIRECTION('',(0.0,-0.0,1.0));
#554=CARTESIAN_POINT('',(0.3,0.0,0.0));
#555=DIRECTION('',(-1.0,0.0,0.0));
#556=DIRECTION('',(0.0,1.0,0.0));
#557=CARTESIAN_POINT('',(0.15,0.0,0.0));
#558=DIRECTION('',(-1.0,-0.0,0.0));
#559=DIRECTION('',(0.0,0.0,1.0));
#560=CARTESIAN_POINT('',(0.3,0.0,0.0));
#561=DIRECTION('',(-1.0,0.0,0.0));
#562=DIRECTION('',(0.0,-1.0,0.0));
#563=CARTESIAN_POINT('',(0.15,5.69981294193644,0.046178208430372));
#564=DIRECTION('',(-0.0,0.00810144007550386,-0.999967182795867));
#565=DIRECTION('',(0.0,0.999967182795867,0.00810144007550386));
#566=CARTESIAN_POINT('',(0.0,0.0,0.0));
#567=DIRECTION('',(-1.0,0.0,0.0));
#568=DIRECTION('',(0.0,-1.0,0.0));
#569=CARTESIAN_POINT('',(0.15,-5.7,0.0));
#570=DIRECTION('',(0.0,0.0,1.0));
#571=DIRECTION('',(-1.0,0.0,0.0));
#572=CARTESIAN_POINT('',(0.15,-5.69981294193644,-0.046178208430372));
#573=DIRECTION('',(0.0,-0.00810144007550386,0.999967182795867));
#574=DIRECTION('',(0.0,-0.999967182795867,-0.00810144007550386));
#575=CARTESIAN_POINT('',(0.0,0.0,0.0));
#576=DIRECTION('',(-1.0,0.0,0.0));
#577=DIRECTION('',(0.0,1.0,0.0));
#578=CARTESIAN_POINT('',(0.15,5.7,0.0));
#579=DIRECTION('',(0.0,0.0,1.0));
#580=DIRECTION('',(1.0,0.0,0.0));
#581=CARTESIAN_POINT('',(25.7,3.59970792456841,0.045856927496339));
#582=DIRECTION('',(-0.0,0.0127380354156497,-0.999918867935669));
#583=DIRECTION('',(0.0,0.999918867935669,0.0127380354156497));
#584=CARTESIAN_POINT('',(25.7,0.0,0.0));
#585=DIRECTION('',(-1.0,0.0,0.0));
#586=DIRECTION('',(0.0,-1.0,0.0));
#587=CARTESIAN_POINT('',(25.7,-3.6,-2.928414455372E-012));
#588=DIRECTION('',(-1.54045518682374E-042,-8.13450001802E-013,1.0));
#589=DIRECTION('',(1.184237892934E-014,-1.0,-8.13450001802E-013));
#590=CARTESIAN_POINT('',(26.0,0.0,0.0));
#591=DIRECTION('',(-1.0,0.0,0.0));
#592=DIRECTION('',(0.0,-1.0,0.0));
#593=CARTESIAN_POINT('',(25.7,-3.59970792456841,-0.045856927496339));
#594=DIRECTION('',(0.0,-0.0127380354156497,0.999918867935669));
#595=DIRECTION('',(0.0,-0.999918867935669,-0.0127380354156497));
#596=CARTESIAN_POINT('',(25.7,0.0,0.0));
#597=DIRECTION('',(-1.0,0.0,0.0));
#598=DIRECTION('',(0.0,1.0,0.0));
#599=CARTESIAN_POINT('',(25.7,3.6,2.927880160541E-012));
#600=DIRECTION('',(0.0,8.133008155831E-013,-1.0));
#601=DIRECTION('',(0.0,1.0,8.133008155831E-013));
#602=CARTESIAN_POINT('',(26.0,0.0,0.0));
#603=DIRECTION('',(-1.0,0.0,0.0));
#604=DIRECTION('',(0.0,1.0,0.0));
#605=CARTESIAN_POINT('',(0.0,0.0,0.0));
#606=DIRECTION('',(-1.0,0.0,0.0));
#607=DIRECTION('',(0.0,-1.0,0.0));
#608=CARTESIAN_POINT('',(0.0,0.0,0.0));
#609=DIRECTION('',(-1.0,0.0,0.0));
#610=DIRECTION('',(0.0,1.0,0.0));
#611=CARTESIAN_POINT('',(0.0,0.0,0.0));
#612=DIRECTION('',(-1.0,0.0,0.0));
#613=DIRECTION('',(0.0,1.0,0.0));
#614=CARTESIAN_POINT('',(0.0,0.0,0.0));
#615=DIRECTION('',(1.0,0.0,0.0));
#616=DIRECTION('',(0.0,1.0,0.0));
#617=CARTESIAN_POINT('',(1.1,0.0,0.0));
#618=DIRECTION('',(1.0,0.0,0.0));
#619=DIRECTION('',(0.0,1.0,0.0));
#620=CARTESIAN_POINT('',(1.1,-4.7,0.0));
#621=DIRECTION('',(0.0,0.0,-1.0));
#622=DIRECTION('',(-1.0,0.0,0.0));
#623=CARTESIAN_POINT('',(1.1,4.7,0.0));
#624=DIRECTION('',(0.0,0.0,1.0));
#625=DIRECTION('',(-1.0,0.0,0.0));
#626=CARTESIAN_POINT('',(1.1,0.0,0.0));
#627=DIRECTION('',(-1.0,0.0,0.0));
#628=DIRECTION('',(0.0,1.0,0.0));
#629=DIRECTION('',(1.0,0.0,0.0));
#630=DIRECTION('',(1.0,0.0,0.0));
#631=CARTESIAN_POINT('',(26.0,0.0,0.0));
#632=DIRECTION('',(-1.0,0.0,0.0));
#633=DIRECTION('',(0.0,1.0,0.0));
#634=CARTESIAN_POINT('',(25.7,0.0,0.0));
#635=DIRECTION('',(-1.0,0.0,0.0));
#636=DIRECTION('',(0.0,1.0,0.0));
#637=DIRECTION('',(-1.0,0.0,0.0));
#638=CARTESIAN_POINT('',(1.1,0.0,0.0));
#639=DIRECTION('',(-1.0,0.0,0.0));
#640=DIRECTION('',(0.0,1.0,0.0));
#641=DIRECTION('',(-1.0,0.0,0.0));
#642=CARTESIAN_POINT('',(1.1,0.0,0.0));
#643=DIRECTION('',(1.0,0.0,0.0));
#644=DIRECTION('',(0.0,1.0,0.0));
#645=CARTESIAN_POINT('',(25.7,0.0,0.0));
#646=DIRECTION('',(-1.0,0.0,0.0));
#647=DIRECTION('',(0.0,-1.0,0.0));
#648=CARTESIAN_POINT('',(26.0,0.0,0.0));
#649=DIRECTION('',(-1.0,0.0,0.0));
#650=DIRECTION('',(0.0,-1.0,0.0));
#651=CARTESIAN_POINT('',(0.3,0.0,0.0));
#652=DIRECTION('',(1.0,0.0,0.0));
#653=DIRECTION('',(0.0,1.0,0.0));
#654=CARTESIAN_POINT('',(1.1,-4.7,0.0));
#655=DIRECTION('',(0.0,-0.0,1.0));
#656=DIRECTION('',(0.0,1.0,0.0));
#657=CARTESIAN_POINT('',(1.1,4.7,0.0));
#658=DIRECTION('',(0.0,0.0,-1.0));
#659=DIRECTION('',(0.0,-1.0,0.0));
#660=CARTESIAN_POINT('',(0.3,0.0,0.0));
#661=DIRECTION('',(-1.0,0.0,0.0));
#662=DIRECTION('',(0.0,1.0,0.0));
ENDSEC;
END-ISO-10303-21;
