ISO-10303-21;
HEADER;
FILE_DESCRIPTION(('STEP AP214'),'1');
FILE_NAME('C:/PartsXMLTools/RobotParts/Generated/STEP_SAT/CAD/Temp/0138_27_00.stp','2016-07-07T14:22:36',('TraceParts'),('TraceParts S.A.'),'Spatial InterOp 3D',' ',' ');
FILE_SCHEMA(('automotive_design'));
ENDSEC;
DATA;
#1=PRODUCT_DEFINITION_CONTEXT('',#9,'design');
#2=APPLICATION_PROTOCOL_DEFINITION('INTERNATIONAL STANDARD','automotive_design',1994,#9);
#3=PRODUCT_CATEGORY_RELATIONSHIP('NONE','NONE',#10,#11);
#4=SHAPE_DEFINITION_REPRESENTATION(#12,#13);
#5= (GEOMETRIC_REPRESENTATION_CONTEXT(3)GLOBAL_UNCERTAINTY_ASSIGNED_CONTEXT((#16))GLOBAL_UNIT_ASSIGNED_CONTEXT((#18,#19,#20))REPRESENTATION_CONTEXT('NONE','WORKSPACE'));
#9=APPLICATION_CONTEXT(' ');
#10=PRODUCT_CATEGORY('part','NONE');
#11=PRODUCT_RELATED_PRODUCT_CATEGORY('detail',' ',(#22));
#12=PRODUCT_DEFINITION_SHAPE('NONE','NONE',#23);
#13=ADVANCED_BREP_SHAPE_REPRESENTATION('0138-27-00',(#24,#25),#5);
#16=UNCERTAINTY_MEASURE_WITH_UNIT(LENGTH_MEASURE(1.0E-006),#18,'','');
#18= (CONVERSION_BASED_UNIT('MILLIMETRE',#28)LENGTH_UNIT()NAMED_UNIT(#31));
#19= (NAMED_UNIT(#33)PLANE_ANGLE_UNIT()SI_UNIT($,.RADIAN.));
#20= (NAMED_UNIT(#33)SOLID_ANGLE_UNIT()SI_UNIT($,.STERADIAN.));
#22=PRODUCT('0138-27-00','0138-27-00','PART-0138-27-00-DESC',(#39));
#23=PRODUCT_DEFINITION('NONE','NONE',#40,#1);
#24=MANIFOLD_SOLID_BREP('0138-27-00',#41);
#25=AXIS2_PLACEMENT_3D('',#42,#43,#44);
#28=LENGTH_MEASURE_WITH_UNIT(LENGTH_MEASURE(1.0),#45);
#31=DIMENSIONAL_EXPONENTS(1.0,0.0,0.0,0.0,0.0,0.0,0.0);
#33=DIMENSIONAL_EXPONENTS(0.0,0.0,0.0,0.0,0.0,0.0,0.0);
#39=PRODUCT_CONTEXT('',#9,'mechanical');
#40=PRODUCT_DEFINITION_FORMATION_WITH_SPECIFIED_SOURCE(' ','NONE',#22,.NOT_KNOWN.);
#41=CLOSED_SHELL('',(#46,#47,#48,#49,#50,#51));
#42=CARTESIAN_POINT('',(0.0,0.0,0.0));
#43=DIRECTION('',(0.0,0.0,1.0));
#44=DIRECTION('',(1.0,0.0,0.0));
#45= (NAMED_UNIT(#31)LENGTH_UNIT()SI_UNIT(.MILLI.,.METRE.));
#46=ADVANCED_FACE('',(#53,#54),#55,.F.);
#47=ADVANCED_FACE('',(#56),#57,.F.);
#48=ADVANCED_FACE('',(#58),#59,.F.);
#49=ADVANCED_FACE('',(#60,#61),#62,.T.);
#50=ADVANCED_FACE('',(#63),#64,.T.);
#51=ADVANCED_FACE('',(#65),#66,.T.);
#53=FACE_OUTER_BOUND('',#67,.T.);
#54=FACE_BOUND('',#68,.T.);
#55=PLANE('',#69);
#56=FACE_OUTER_BOUND('',#70,.T.);
#57=CYLINDRICAL_SURFACE('',#71,13.65);
#58=FACE_OUTER_BOUND('',#72,.T.);
#59=CYLINDRICAL_SURFACE('',#73,13.65);
#60=FACE_OUTER_BOUND('',#74,.T.);
#61=FACE_BOUND('',#75,.T.);
#62=PLANE('',#76);
#63=FACE_OUTER_BOUND('',#77,.T.);
#64=CYLINDRICAL_SURFACE('',#78,16.0);
#65=FACE_OUTER_BOUND('',#79,.T.);
#66=CYLINDRICAL_SURFACE('',#80,16.0);
#67=EDGE_LOOP('',(#81,#82));
#68=EDGE_LOOP('',(#83,#84));
#69=AXIS2_PLACEMENT_3D('',#85,#86,#87);
#70=EDGE_LOOP('',(#88,#89,#90,#91));
#71=AXIS2_PLACEMENT_3D('',#92,#93,#94);
#72=EDGE_LOOP('',(#95,#96,#97,#98));
#73=AXIS2_PLACEMENT_3D('',#99,#100,#101);
#74=EDGE_LOOP('',(#102,#103));
#75=EDGE_LOOP('',(#104,#105));
#76=AXIS2_PLACEMENT_3D('',#106,#107,#108);
#77=EDGE_LOOP('',(#109,#110,#111,#112));
#78=AXIS2_PLACEMENT_3D('',#113,#114,#115);
#79=EDGE_LOOP('',(#116,#117,#118,#119));
#80=AXIS2_PLACEMENT_3D('',#120,#121,#122);
#81=ORIENTED_EDGE('',*,*,#123,.F.);
#82=ORIENTED_EDGE('',*,*,#124,.F.);
#83=ORIENTED_EDGE('',*,*,#125,.F.);
#84=ORIENTED_EDGE('',*,*,#126,.F.);
#85=CARTESIAN_POINT('',(0.0,0.0,0.0));
#86=DIRECTION('',(0.0,1.0,0.0));
#87=DIRECTION('',(1.0,0.0,-0.0));
#88=ORIENTED_EDGE('',*,*,#127,.T.);
#89=ORIENTED_EDGE('',*,*,#128,.F.);
#90=ORIENTED_EDGE('',*,*,#129,.F.);
#91=ORIENTED_EDGE('',*,*,#126,.T.);
#92=CARTESIAN_POINT('',(0.0,0.0,0.0));
#93=DIRECTION('',(0.0,-1.0,0.0));
#94=DIRECTION('',(1.0,0.0,0.0));
#95=ORIENTED_EDGE('',*,*,#129,.T.);
#96=ORIENTED_EDGE('',*,*,#130,.F.);
#97=ORIENTED_EDGE('',*,*,#127,.F.);
#98=ORIENTED_EDGE('',*,*,#125,.T.);
#99=CARTESIAN_POINT('',(0.0,0.0,0.0));
#100=DIRECTION('',(0.0,-1.0,0.0));
#101=DIRECTION('',(1.0,0.0,0.0));
#102=ORIENTED_EDGE('',*,*,#131,.T.);
#103=ORIENTED_EDGE('',*,*,#132,.T.);
#104=ORIENTED_EDGE('',*,*,#130,.T.);
#105=ORIENTED_EDGE('',*,*,#128,.T.);
#106=CARTESIAN_POINT('',(0.0,2.0,0.0));
#107=DIRECTION('',(0.0,1.0,0.0));
#108=DIRECTION('',(1.0,0.0,-0.0));
#109=ORIENTED_EDGE('',*,*,#133,.T.);
#110=ORIENTED_EDGE('',*,*,#132,.F.);
#111=ORIENTED_EDGE('',*,*,#134,.F.);
#112=ORIENTED_EDGE('',*,*,#124,.T.);
#113=CARTESIAN_POINT('',(0.0,0.0,0.0));
#114=DIRECTION('',(0.0,-1.0,0.0));
#115=DIRECTION('',(1.0,0.0,0.0));
#116=ORIENTED_EDGE('',*,*,#134,.T.);
#117=ORIENTED_EDGE('',*,*,#131,.F.);
#118=ORIENTED_EDGE('',*,*,#133,.F.);
#119=ORIENTED_EDGE('',*,*,#123,.T.);
#120=CARTESIAN_POINT('',(0.0,0.0,0.0));
#121=DIRECTION('',(0.0,-1.0,0.0));
#122=DIRECTION('',(1.0,0.0,0.0));
#123=EDGE_CURVE('',#135,#136,#137,.T.);
#124=EDGE_CURVE('',#136,#135,#138,.T.);
#125=EDGE_CURVE('',#139,#140,#141,.T.);
#126=EDGE_CURVE('',#140,#139,#142,.T.);
#127=EDGE_CURVE('',#139,#143,#144,.T.);
#128=EDGE_CURVE('',#145,#143,#146,.T.);
#129=EDGE_CURVE('',#140,#145,#147,.T.);
#130=EDGE_CURVE('',#143,#145,#148,.T.);
#131=EDGE_CURVE('',#149,#150,#151,.T.);
#132=EDGE_CURVE('',#150,#149,#152,.T.);
#133=EDGE_CURVE('',#135,#149,#153,.T.);
#134=EDGE_CURVE('',#136,#150,#154,.T.);
#135=VERTEX_POINT('',#155);
#136=VERTEX_POINT('',#156);
#137=CIRCLE('',#157,16.0);
#138=CIRCLE('',#158,16.0);
#139=VERTEX_POINT('',#159);
#140=VERTEX_POINT('',#160);
#141=CIRCLE('',#161,13.65);
#142=CIRCLE('',#162,13.65);
#143=VERTEX_POINT('',#163);
#144=LINE('',#164,#165);
#145=VERTEX_POINT('',#166);
#146=CIRCLE('',#167,13.65);
#147=LINE('',#168,#169);
#148=CIRCLE('',#170,13.65);
#149=VERTEX_POINT('',#171);
#150=VERTEX_POINT('',#172);
#151=CIRCLE('',#173,16.0);
#152=CIRCLE('',#174,16.0);
#153=LINE('',#175,#176);
#154=LINE('',#177,#178);
#155=CARTESIAN_POINT('',(-16.0,0.0,0.0));
#156=CARTESIAN_POINT('',(16.0,0.0,0.0));
#157=AXIS2_PLACEMENT_3D('',#179,#180,#181);
#158=AXIS2_PLACEMENT_3D('',#182,#183,#184);
#159=CARTESIAN_POINT('',(-13.65,0.0,0.0));
#160=CARTESIAN_POINT('',(13.65,0.0,0.0));
#161=AXIS2_PLACEMENT_3D('',#185,#186,#187);
#162=AXIS2_PLACEMENT_3D('',#188,#189,#190);
#163=CARTESIAN_POINT('',(-13.65,2.0,0.0));
#164=CARTESIAN_POINT('',(-13.65,0.0,0.0));
#165=VECTOR('',#191,2.0);
#166=CARTESIAN_POINT('',(13.65,2.0,0.0));
#167=AXIS2_PLACEMENT_3D('',#192,#193,#194);
#168=CARTESIAN_POINT('',(13.65,0.0,0.0));
#169=VECTOR('',#195,2.0);
#170=AXIS2_PLACEMENT_3D('',#196,#197,#198);
#171=CARTESIAN_POINT('',(-16.0,2.0,0.0));
#172=CARTESIAN_POINT('',(16.0,2.0,0.0));
#173=AXIS2_PLACEMENT_3D('',#199,#200,#201);
#174=AXIS2_PLACEMENT_3D('',#202,#203,#204);
#175=CARTESIAN_POINT('',(-16.0,0.0,0.0));
#176=VECTOR('',#205,2.0);
#177=CARTESIAN_POINT('',(16.0,0.0,0.0));
#178=VECTOR('',#206,2.0);
#179=CARTESIAN_POINT('',(0.0,0.0,0.0));
#180=DIRECTION('',(0.0,1.0,0.0));
#181=DIRECTION('',(-1.0,0.0,0.0));
#182=CARTESIAN_POINT('',(0.0,0.0,0.0));
#183=DIRECTION('',(-0.0,1.0,0.0));
#184=DIRECTION('',(1.0,0.0,0.0));
#185=CARTESIAN_POINT('',(0.0,0.0,0.0));
#186=DIRECTION('',(0.0,-1.0,0.0));
#187=DIRECTION('',(-1.0,0.0,0.0));
#188=CARTESIAN_POINT('',(0.0,0.0,0.0));
#189=DIRECTION('',(0.0,-1.0,0.0));
#190=DIRECTION('',(1.0,0.0,0.0));
#191=DIRECTION('',(0.0,1.0,0.0));
#192=CARTESIAN_POINT('',(0.0,2.0,0.0));
#193=DIRECTION('',(0.0,-1.0,0.0));
#194=DIRECTION('',(1.0,0.0,0.0));
#195=DIRECTION('',(0.0,1.0,0.0));
#196=CARTESIAN_POINT('',(0.0,2.0,0.0));
#197=DIRECTION('',(0.0,-1.0,0.0));
#198=DIRECTION('',(-1.0,0.0,0.0));
#199=CARTESIAN_POINT('',(0.0,2.0,0.0));
#200=DIRECTION('',(0.0,1.0,0.0));
#201=DIRECTION('',(-1.0,0.0,0.0));
#202=CARTESIAN_POINT('',(0.0,2.0,0.0));
#203=DIRECTION('',(-0.0,1.0,0.0));
#204=DIRECTION('',(1.0,0.0,0.0));
#205=DIRECTION('',(0.0,1.0,0.0));
#206=DIRECTION('',(0.0,1.0,0.0));
ENDSEC;
END-ISO-10303-21;
