ISO-10303-21;
HEADER;
/* Generated by software containing ST-Developer
 * from STEP Tools, Inc. (www.steptools.com) 
 */

FILE_DESCRIPTION(
/* description */ (''),
/* implementation_level */ '2;1');

FILE_NAME(
/* name */ 'J:\\003 3D Zeichnungen_step\\Serie 48\\48SFTF06FXX.stp',
/* time_stamp */ '2017-07-14T07:14:22+02:00',
/* author */ ('528268'),
/* organization */ (''),
/* preprocessor_version */ 'ST-DEVELOPER v16.1',
/* originating_system */ 'Autodesk Inventor 2016',
/* authorisation */ '');

FILE_SCHEMA (('AUTOMOTIVE_DESIGN { 1 0 10303 214 3 1 1 }'));
ENDSEC;

DATA;
#10=MECHANICAL_DESIGN_GEOMETRIC_PRESENTATION_REPRESENTATION('',(#13),#583);
#11=SHAPE_REPRESENTATION_RELATIONSHIP('SRR','None',#592,#12);
#12=ADVANCED_BREP_SHAPE_REPRESENTATION('',(#14),#582);
#13=STYLED_ITEM('',(#601),#14);
#14=MANIFOLD_SOLID_BREP('Solid1',#323);
#15=PLANE('',#340);
#16=PLANE('',#348);
#17=PLANE('',#354);
#18=PLANE('',#360);
#19=PLANE('',#366);
#20=PLANE('',#376);
#21=TOROIDAL_SURFACE('',#338,7.95,1.00000000000001);
#22=TOROIDAL_SURFACE('',#342,8.5,0.499999999999999);
#23=TOROIDAL_SURFACE('',#346,8.5,0.499999999999998);
#24=TOROIDAL_SURFACE('',#350,5.,2.);
#25=TOROIDAL_SURFACE('',#364,2.11403053766626,0.300000000000011);
#26=TOROIDAL_SURFACE('',#378,4.65,0.5);
#27=CYLINDRICAL_SURFACE('',#328,6.);
#28=CYLINDRICAL_SURFACE('',#332,5.2);
#29=CYLINDRICAL_SURFACE('',#336,6.95);
#30=CYLINDRICAL_SURFACE('',#344,9.);
#31=CYLINDRICAL_SURFACE('',#352,3.);
#32=CYLINDRICAL_SURFACE('',#358,3.);
#33=CYLINDRICAL_SURFACE('',#368,1.8);
#34=CYLINDRICAL_SURFACE('',#372,3.5);
#35=CYLINDRICAL_SURFACE('',#380,5.15);
#36=FACE_BOUND('',#93,.T.);
#37=FACE_BOUND('',#95,.T.);
#38=FACE_BOUND('',#97,.T.);
#39=FACE_BOUND('',#99,.T.);
#40=FACE_BOUND('',#101,.T.);
#41=FACE_BOUND('',#103,.T.);
#42=FACE_BOUND('',#105,.T.);
#43=FACE_BOUND('',#107,.T.);
#44=FACE_BOUND('',#109,.T.);
#45=FACE_BOUND('',#111,.T.);
#46=FACE_BOUND('',#113,.T.);
#47=FACE_BOUND('',#115,.T.);
#48=FACE_BOUND('',#117,.T.);
#49=FACE_BOUND('',#119,.T.);
#50=FACE_BOUND('',#121,.T.);
#51=FACE_BOUND('',#123,.T.);
#52=FACE_BOUND('',#125,.T.);
#53=FACE_BOUND('',#127,.T.);
#54=FACE_BOUND('',#129,.T.);
#55=FACE_BOUND('',#131,.T.);
#56=FACE_BOUND('',#133,.T.);
#57=FACE_BOUND('',#135,.T.);
#58=FACE_BOUND('',#137,.T.);
#59=FACE_BOUND('',#139,.T.);
#60=FACE_BOUND('',#141,.T.);
#61=FACE_BOUND('',#143,.T.);
#62=FACE_BOUND('',#145,.T.);
#63=FACE_BOUND('',#147,.T.);
#64=FACE_OUTER_BOUND('',#92,.T.);
#65=FACE_OUTER_BOUND('',#94,.T.);
#66=FACE_OUTER_BOUND('',#96,.T.);
#67=FACE_OUTER_BOUND('',#98,.T.);
#68=FACE_OUTER_BOUND('',#100,.T.);
#69=FACE_OUTER_BOUND('',#102,.T.);
#70=FACE_OUTER_BOUND('',#104,.T.);
#71=FACE_OUTER_BOUND('',#106,.T.);
#72=FACE_OUTER_BOUND('',#108,.T.);
#73=FACE_OUTER_BOUND('',#110,.T.);
#74=FACE_OUTER_BOUND('',#112,.T.);
#75=FACE_OUTER_BOUND('',#114,.T.);
#76=FACE_OUTER_BOUND('',#116,.T.);
#77=FACE_OUTER_BOUND('',#118,.T.);
#78=FACE_OUTER_BOUND('',#120,.T.);
#79=FACE_OUTER_BOUND('',#122,.T.);
#80=FACE_OUTER_BOUND('',#124,.T.);
#81=FACE_OUTER_BOUND('',#126,.T.);
#82=FACE_OUTER_BOUND('',#128,.T.);
#83=FACE_OUTER_BOUND('',#130,.T.);
#84=FACE_OUTER_BOUND('',#132,.T.);
#85=FACE_OUTER_BOUND('',#134,.T.);
#86=FACE_OUTER_BOUND('',#136,.T.);
#87=FACE_OUTER_BOUND('',#138,.T.);
#88=FACE_OUTER_BOUND('',#140,.T.);
#89=FACE_OUTER_BOUND('',#142,.T.);
#90=FACE_OUTER_BOUND('',#144,.T.);
#91=FACE_OUTER_BOUND('',#146,.T.);
#92=EDGE_LOOP('',(#232));
#93=EDGE_LOOP('',(#233));
#94=EDGE_LOOP('',(#234));
#95=EDGE_LOOP('',(#235));
#96=EDGE_LOOP('',(#236));
#97=EDGE_LOOP('',(#237));
#98=EDGE_LOOP('',(#238));
#99=EDGE_LOOP('',(#239));
#100=EDGE_LOOP('',(#240));
#101=EDGE_LOOP('',(#241));
#102=EDGE_LOOP('',(#242));
#103=EDGE_LOOP('',(#243));
#104=EDGE_LOOP('',(#244));
#105=EDGE_LOOP('',(#245));
#106=EDGE_LOOP('',(#246));
#107=EDGE_LOOP('',(#247));
#108=EDGE_LOOP('',(#248));
#109=EDGE_LOOP('',(#249));
#110=EDGE_LOOP('',(#250));
#111=EDGE_LOOP('',(#251));
#112=EDGE_LOOP('',(#252));
#113=EDGE_LOOP('',(#253));
#114=EDGE_LOOP('',(#254));
#115=EDGE_LOOP('',(#255));
#116=EDGE_LOOP('',(#256));
#117=EDGE_LOOP('',(#257));
#118=EDGE_LOOP('',(#258));
#119=EDGE_LOOP('',(#259));
#120=EDGE_LOOP('',(#260));
#121=EDGE_LOOP('',(#261));
#122=EDGE_LOOP('',(#262));
#123=EDGE_LOOP('',(#263));
#124=EDGE_LOOP('',(#264));
#125=EDGE_LOOP('',(#265));
#126=EDGE_LOOP('',(#266));
#127=EDGE_LOOP('',(#267));
#128=EDGE_LOOP('',(#268));
#129=EDGE_LOOP('',(#269));
#130=EDGE_LOOP('',(#270));
#131=EDGE_LOOP('',(#271));
#132=EDGE_LOOP('',(#272));
#133=EDGE_LOOP('',(#273));
#134=EDGE_LOOP('',(#274));
#135=EDGE_LOOP('',(#275));
#136=EDGE_LOOP('',(#276));
#137=EDGE_LOOP('',(#277));
#138=EDGE_LOOP('',(#278));
#139=EDGE_LOOP('',(#279));
#140=EDGE_LOOP('',(#280));
#141=EDGE_LOOP('',(#281));
#142=EDGE_LOOP('',(#282));
#143=EDGE_LOOP('',(#283));
#144=EDGE_LOOP('',(#284));
#145=EDGE_LOOP('',(#285));
#146=EDGE_LOOP('',(#286));
#147=EDGE_LOOP('',(#287));
#148=CIRCLE('',#326,5.15);
#149=CIRCLE('',#327,6.);
#150=CIRCLE('',#329,6.);
#151=CIRCLE('',#331,5.2);
#152=CIRCLE('',#333,5.2);
#153=CIRCLE('',#335,6.95);
#154=CIRCLE('',#337,6.95);
#155=CIRCLE('',#339,7.95);
#156=CIRCLE('',#341,8.5);
#157=CIRCLE('',#343,9.);
#158=CIRCLE('',#345,9.);
#159=CIRCLE('',#347,8.5);
#160=CIRCLE('',#349,5.);
#161=CIRCLE('',#351,3.);
#162=CIRCLE('',#353,3.);
#163=CIRCLE('',#355,3.55);
#164=CIRCLE('',#357,3.);
#165=CIRCLE('',#359,3.);
#166=CIRCLE('',#361,3.55);
#167=CIRCLE('',#363,2.40380828555299);
#168=CIRCLE('',#365,2.11403053766626);
#169=CIRCLE('',#367,1.8);
#170=CIRCLE('',#369,1.8);
#171=CIRCLE('',#371,3.5);
#172=CIRCLE('',#373,3.5);
#173=CIRCLE('',#375,3.75);
#174=CIRCLE('',#377,4.65);
#175=CIRCLE('',#379,5.15);
#176=VERTEX_POINT('',#497);
#177=VERTEX_POINT('',#499);
#178=VERTEX_POINT('',#502);
#179=VERTEX_POINT('',#505);
#180=VERTEX_POINT('',#508);
#181=VERTEX_POINT('',#511);
#182=VERTEX_POINT('',#514);
#183=VERTEX_POINT('',#517);
#184=VERTEX_POINT('',#520);
#185=VERTEX_POINT('',#523);
#186=VERTEX_POINT('',#526);
#187=VERTEX_POINT('',#529);
#188=VERTEX_POINT('',#532);
#189=VERTEX_POINT('',#535);
#190=VERTEX_POINT('',#538);
#191=VERTEX_POINT('',#541);
#192=VERTEX_POINT('',#544);
#193=VERTEX_POINT('',#547);
#194=VERTEX_POINT('',#550);
#195=VERTEX_POINT('',#553);
#196=VERTEX_POINT('',#556);
#197=VERTEX_POINT('',#559);
#198=VERTEX_POINT('',#562);
#199=VERTEX_POINT('',#565);
#200=VERTEX_POINT('',#568);
#201=VERTEX_POINT('',#571);
#202=VERTEX_POINT('',#574);
#203=VERTEX_POINT('',#577);
#204=EDGE_CURVE('',#176,#176,#148,.T.);
#205=EDGE_CURVE('',#177,#177,#149,.T.);
#206=EDGE_CURVE('',#178,#178,#150,.T.);
#207=EDGE_CURVE('',#179,#179,#151,.T.);
#208=EDGE_CURVE('',#180,#180,#152,.T.);
#209=EDGE_CURVE('',#181,#181,#153,.T.);
#210=EDGE_CURVE('',#182,#182,#154,.T.);
#211=EDGE_CURVE('',#183,#183,#155,.T.);
#212=EDGE_CURVE('',#184,#184,#156,.T.);
#213=EDGE_CURVE('',#185,#185,#157,.T.);
#214=EDGE_CURVE('',#186,#186,#158,.T.);
#215=EDGE_CURVE('',#187,#187,#159,.T.);
#216=EDGE_CURVE('',#188,#188,#160,.T.);
#217=EDGE_CURVE('',#189,#189,#161,.T.);
#218=EDGE_CURVE('',#190,#190,#162,.T.);
#219=EDGE_CURVE('',#191,#191,#163,.T.);
#220=EDGE_CURVE('',#192,#192,#164,.T.);
#221=EDGE_CURVE('',#193,#193,#165,.T.);
#222=EDGE_CURVE('',#194,#194,#166,.T.);
#223=EDGE_CURVE('',#195,#195,#167,.T.);
#224=EDGE_CURVE('',#196,#196,#168,.T.);
#225=EDGE_CURVE('',#197,#197,#169,.T.);
#226=EDGE_CURVE('',#198,#198,#170,.T.);
#227=EDGE_CURVE('',#199,#199,#171,.T.);
#228=EDGE_CURVE('',#200,#200,#172,.T.);
#229=EDGE_CURVE('',#201,#201,#173,.T.);
#230=EDGE_CURVE('',#202,#202,#174,.T.);
#231=EDGE_CURVE('',#203,#203,#175,.T.);
#232=ORIENTED_EDGE('',*,*,#204,.T.);
#233=ORIENTED_EDGE('',*,*,#205,.F.);
#234=ORIENTED_EDGE('',*,*,#205,.T.);
#235=ORIENTED_EDGE('',*,*,#206,.F.);
#236=ORIENTED_EDGE('',*,*,#206,.T.);
#237=ORIENTED_EDGE('',*,*,#207,.F.);
#238=ORIENTED_EDGE('',*,*,#207,.T.);
#239=ORIENTED_EDGE('',*,*,#208,.F.);
#240=ORIENTED_EDGE('',*,*,#208,.T.);
#241=ORIENTED_EDGE('',*,*,#209,.F.);
#242=ORIENTED_EDGE('',*,*,#209,.T.);
#243=ORIENTED_EDGE('',*,*,#210,.F.);
#244=ORIENTED_EDGE('',*,*,#210,.T.);
#245=ORIENTED_EDGE('',*,*,#211,.F.);
#246=ORIENTED_EDGE('',*,*,#212,.F.);
#247=ORIENTED_EDGE('',*,*,#211,.T.);
#248=ORIENTED_EDGE('',*,*,#212,.T.);
#249=ORIENTED_EDGE('',*,*,#213,.F.);
#250=ORIENTED_EDGE('',*,*,#213,.T.);
#251=ORIENTED_EDGE('',*,*,#214,.F.);
#252=ORIENTED_EDGE('',*,*,#214,.T.);
#253=ORIENTED_EDGE('',*,*,#215,.F.);
#254=ORIENTED_EDGE('',*,*,#215,.T.);
#255=ORIENTED_EDGE('',*,*,#216,.F.);
#256=ORIENTED_EDGE('',*,*,#216,.T.);
#257=ORIENTED_EDGE('',*,*,#217,.F.);
#258=ORIENTED_EDGE('',*,*,#217,.T.);
#259=ORIENTED_EDGE('',*,*,#218,.F.);
#260=ORIENTED_EDGE('',*,*,#219,.F.);
#261=ORIENTED_EDGE('',*,*,#218,.T.);
#262=ORIENTED_EDGE('',*,*,#219,.T.);
#263=ORIENTED_EDGE('',*,*,#220,.F.);
#264=ORIENTED_EDGE('',*,*,#220,.T.);
#265=ORIENTED_EDGE('',*,*,#221,.F.);
#266=ORIENTED_EDGE('',*,*,#222,.F.);
#267=ORIENTED_EDGE('',*,*,#221,.T.);
#268=ORIENTED_EDGE('',*,*,#222,.T.);
#269=ORIENTED_EDGE('',*,*,#223,.F.);
#270=ORIENTED_EDGE('',*,*,#223,.T.);
#271=ORIENTED_EDGE('',*,*,#224,.F.);
#272=ORIENTED_EDGE('',*,*,#224,.T.);
#273=ORIENTED_EDGE('',*,*,#225,.F.);
#274=ORIENTED_EDGE('',*,*,#225,.T.);
#275=ORIENTED_EDGE('',*,*,#226,.F.);
#276=ORIENTED_EDGE('',*,*,#226,.T.);
#277=ORIENTED_EDGE('',*,*,#227,.F.);
#278=ORIENTED_EDGE('',*,*,#227,.T.);
#279=ORIENTED_EDGE('',*,*,#228,.F.);
#280=ORIENTED_EDGE('',*,*,#228,.T.);
#281=ORIENTED_EDGE('',*,*,#229,.F.);
#282=ORIENTED_EDGE('',*,*,#230,.F.);
#283=ORIENTED_EDGE('',*,*,#229,.T.);
#284=ORIENTED_EDGE('',*,*,#230,.T.);
#285=ORIENTED_EDGE('',*,*,#231,.F.);
#286=ORIENTED_EDGE('',*,*,#231,.T.);
#287=ORIENTED_EDGE('',*,*,#204,.F.);
#288=CONICAL_SURFACE('',#325,5.575,45.);
#289=CONICAL_SURFACE('',#330,5.6,45.0000000000001);
#290=CONICAL_SURFACE('',#334,6.075,60.);
#291=CONICAL_SURFACE('',#356,3.275,9.99999999999999);
#292=CONICAL_SURFACE('',#362,2.97690414277649,14.9999999999999);
#293=CONICAL_SURFACE('',#370,2.65,45.);
#294=CONICAL_SURFACE('',#374,3.625,29.9999999999999);
#295=ADVANCED_FACE('',(#64,#36),#288,.T.);
#296=ADVANCED_FACE('',(#65,#37),#27,.T.);
#297=ADVANCED_FACE('',(#66,#38),#289,.T.);
#298=ADVANCED_FACE('',(#67,#39),#28,.T.);
#299=ADVANCED_FACE('',(#68,#40),#290,.T.);
#300=ADVANCED_FACE('',(#69,#41),#29,.T.);
#301=ADVANCED_FACE('',(#70,#42),#21,.F.);
#302=ADVANCED_FACE('',(#71,#43),#15,.T.);
#303=ADVANCED_FACE('',(#72,#44),#22,.T.);
#304=ADVANCED_FACE('',(#73,#45),#30,.T.);
#305=ADVANCED_FACE('',(#74,#46),#23,.T.);
#306=ADVANCED_FACE('',(#75,#47),#16,.T.);
#307=ADVANCED_FACE('',(#76,#48),#24,.F.);
#308=ADVANCED_FACE('',(#77,#49),#31,.T.);
#309=ADVANCED_FACE('',(#78,#50),#17,.T.);
#310=ADVANCED_FACE('',(#79,#51),#291,.T.);
#311=ADVANCED_FACE('',(#80,#52),#32,.T.);
#312=ADVANCED_FACE('',(#81,#53),#18,.T.);
#313=ADVANCED_FACE('',(#82,#54),#292,.T.);
#314=ADVANCED_FACE('',(#83,#55),#25,.T.);
#315=ADVANCED_FACE('',(#84,#56),#19,.T.);
#316=ADVANCED_FACE('',(#85,#57),#33,.F.);
#317=ADVANCED_FACE('',(#86,#58),#293,.F.);
#318=ADVANCED_FACE('',(#87,#59),#34,.F.);
#319=ADVANCED_FACE('',(#88,#60),#294,.F.);
#320=ADVANCED_FACE('',(#89,#61),#20,.T.);
#321=ADVANCED_FACE('',(#90,#62),#26,.T.);
#322=ADVANCED_FACE('',(#91,#63),#35,.T.);
#323=CLOSED_SHELL('',(#295,#296,#297,#298,#299,#300,#301,#302,#303,#304,
#305,#306,#307,#308,#309,#310,#311,#312,#313,#314,#315,#316,#317,#318,#319,
#320,#321,#322));
#324=AXIS2_PLACEMENT_3D('placement',#495,#381,#382);
#325=AXIS2_PLACEMENT_3D('',#496,#383,#384);
#326=AXIS2_PLACEMENT_3D('',#498,#385,#386);
#327=AXIS2_PLACEMENT_3D('',#500,#387,#388);
#328=AXIS2_PLACEMENT_3D('',#501,#389,#390);
#329=AXIS2_PLACEMENT_3D('',#503,#391,#392);
#330=AXIS2_PLACEMENT_3D('',#504,#393,#394);
#331=AXIS2_PLACEMENT_3D('',#506,#395,#396);
#332=AXIS2_PLACEMENT_3D('',#507,#397,#398);
#333=AXIS2_PLACEMENT_3D('',#509,#399,#400);
#334=AXIS2_PLACEMENT_3D('',#510,#401,#402);
#335=AXIS2_PLACEMENT_3D('',#512,#403,#404);
#336=AXIS2_PLACEMENT_3D('',#513,#405,#406);
#337=AXIS2_PLACEMENT_3D('',#515,#407,#408);
#338=AXIS2_PLACEMENT_3D('',#516,#409,#410);
#339=AXIS2_PLACEMENT_3D('',#518,#411,#412);
#340=AXIS2_PLACEMENT_3D('',#519,#413,#414);
#341=AXIS2_PLACEMENT_3D('',#521,#415,#416);
#342=AXIS2_PLACEMENT_3D('',#522,#417,#418);
#343=AXIS2_PLACEMENT_3D('',#524,#419,#420);
#344=AXIS2_PLACEMENT_3D('',#525,#421,#422);
#345=AXIS2_PLACEMENT_3D('',#527,#423,#424);
#346=AXIS2_PLACEMENT_3D('',#528,#425,#426);
#347=AXIS2_PLACEMENT_3D('',#530,#427,#428);
#348=AXIS2_PLACEMENT_3D('',#531,#429,#430);
#349=AXIS2_PLACEMENT_3D('',#533,#431,#432);
#350=AXIS2_PLACEMENT_3D('',#534,#433,#434);
#351=AXIS2_PLACEMENT_3D('',#536,#435,#436);
#352=AXIS2_PLACEMENT_3D('',#537,#437,#438);
#353=AXIS2_PLACEMENT_3D('',#539,#439,#440);
#354=AXIS2_PLACEMENT_3D('',#540,#441,#442);
#355=AXIS2_PLACEMENT_3D('',#542,#443,#444);
#356=AXIS2_PLACEMENT_3D('',#543,#445,#446);
#357=AXIS2_PLACEMENT_3D('',#545,#447,#448);
#358=AXIS2_PLACEMENT_3D('',#546,#449,#450);
#359=AXIS2_PLACEMENT_3D('',#548,#451,#452);
#360=AXIS2_PLACEMENT_3D('',#549,#453,#454);
#361=AXIS2_PLACEMENT_3D('',#551,#455,#456);
#362=AXIS2_PLACEMENT_3D('',#552,#457,#458);
#363=AXIS2_PLACEMENT_3D('',#554,#459,#460);
#364=AXIS2_PLACEMENT_3D('',#555,#461,#462);
#365=AXIS2_PLACEMENT_3D('',#557,#463,#464);
#366=AXIS2_PLACEMENT_3D('',#558,#465,#466);
#367=AXIS2_PLACEMENT_3D('',#560,#467,#468);
#368=AXIS2_PLACEMENT_3D('',#561,#469,#470);
#369=AXIS2_PLACEMENT_3D('',#563,#471,#472);
#370=AXIS2_PLACEMENT_3D('',#564,#473,#474);
#371=AXIS2_PLACEMENT_3D('',#566,#475,#476);
#372=AXIS2_PLACEMENT_3D('',#567,#477,#478);
#373=AXIS2_PLACEMENT_3D('',#569,#479,#480);
#374=AXIS2_PLACEMENT_3D('',#570,#481,#482);
#375=AXIS2_PLACEMENT_3D('',#572,#483,#484);
#376=AXIS2_PLACEMENT_3D('',#573,#485,#486);
#377=AXIS2_PLACEMENT_3D('',#575,#487,#488);
#378=AXIS2_PLACEMENT_3D('',#576,#489,#490);
#379=AXIS2_PLACEMENT_3D('',#578,#491,#492);
#380=AXIS2_PLACEMENT_3D('',#579,#493,#494);
#381=DIRECTION('axis',(0.,0.,1.));
#382=DIRECTION('refdir',(1.,0.,0.));
#383=DIRECTION('center_axis',(1.,0.,0.));
#384=DIRECTION('ref_axis',(0.,1.,0.));
#385=DIRECTION('center_axis',(1.,0.,0.));
#386=DIRECTION('ref_axis',(0.,0.,-1.));
#387=DIRECTION('center_axis',(1.,0.,0.));
#388=DIRECTION('ref_axis',(0.,0.,-1.));
#389=DIRECTION('center_axis',(1.,0.,0.));
#390=DIRECTION('ref_axis',(0.,1.,0.));
#391=DIRECTION('center_axis',(1.,0.,0.));
#392=DIRECTION('ref_axis',(0.,0.,-1.));
#393=DIRECTION('center_axis',(-1.,0.,0.));
#394=DIRECTION('ref_axis',(0.,1.,0.));
#395=DIRECTION('center_axis',(1.,0.,0.));
#396=DIRECTION('ref_axis',(0.,0.,-1.));
#397=DIRECTION('center_axis',(1.,0.,0.));
#398=DIRECTION('ref_axis',(0.,1.,0.));
#399=DIRECTION('center_axis',(1.,0.,0.));
#400=DIRECTION('ref_axis',(0.,0.,-1.));
#401=DIRECTION('center_axis',(1.,0.,0.));
#402=DIRECTION('ref_axis',(0.,1.,0.));
#403=DIRECTION('center_axis',(1.,0.,0.));
#404=DIRECTION('ref_axis',(0.,0.,-1.));
#405=DIRECTION('center_axis',(1.,0.,0.));
#406=DIRECTION('ref_axis',(0.,1.,0.));
#407=DIRECTION('center_axis',(1.,0.,0.));
#408=DIRECTION('ref_axis',(0.,0.,-1.));
#409=DIRECTION('center_axis',(1.,0.,0.));
#410=DIRECTION('ref_axis',(0.,0.,-1.));
#411=DIRECTION('center_axis',(1.,0.,0.));
#412=DIRECTION('ref_axis',(0.,0.,-1.));
#413=DIRECTION('center_axis',(-1.,0.,0.));
#414=DIRECTION('ref_axis',(0.,0.,1.));
#415=DIRECTION('center_axis',(1.,0.,0.));
#416=DIRECTION('ref_axis',(0.,0.,-1.));
#417=DIRECTION('center_axis',(1.,0.,0.));
#418=DIRECTION('ref_axis',(0.,0.,-1.));
#419=DIRECTION('center_axis',(1.,0.,0.));
#420=DIRECTION('ref_axis',(0.,0.,-1.));
#421=DIRECTION('center_axis',(1.,0.,0.));
#422=DIRECTION('ref_axis',(0.,1.,0.));
#423=DIRECTION('center_axis',(1.,0.,0.));
#424=DIRECTION('ref_axis',(0.,0.,-1.));
#425=DIRECTION('center_axis',(1.,0.,0.));
#426=DIRECTION('ref_axis',(0.,0.,-1.));
#427=DIRECTION('center_axis',(1.,0.,0.));
#428=DIRECTION('ref_axis',(0.,0.,-1.));
#429=DIRECTION('center_axis',(1.,0.,0.));
#430=DIRECTION('ref_axis',(0.,0.,-1.));
#431=DIRECTION('center_axis',(1.,0.,0.));
#432=DIRECTION('ref_axis',(0.,0.,-1.));
#433=DIRECTION('center_axis',(1.,0.,0.));
#434=DIRECTION('ref_axis',(0.,0.,-1.));
#435=DIRECTION('center_axis',(1.,0.,0.));
#436=DIRECTION('ref_axis',(0.,0.,-1.));
#437=DIRECTION('center_axis',(1.,0.,0.));
#438=DIRECTION('ref_axis',(0.,1.,0.));
#439=DIRECTION('center_axis',(1.,0.,0.));
#440=DIRECTION('ref_axis',(0.,0.,-1.));
#441=DIRECTION('center_axis',(-1.,0.,0.));
#442=DIRECTION('ref_axis',(0.,0.,1.));
#443=DIRECTION('center_axis',(1.,0.,0.));
#444=DIRECTION('ref_axis',(0.,0.,-1.));
#445=DIRECTION('center_axis',(-1.,0.,0.));
#446=DIRECTION('ref_axis',(0.,1.,0.));
#447=DIRECTION('center_axis',(1.,0.,0.));
#448=DIRECTION('ref_axis',(0.,0.,-1.));
#449=DIRECTION('center_axis',(1.,0.,0.));
#450=DIRECTION('ref_axis',(0.,1.,0.));
#451=DIRECTION('center_axis',(1.,0.,0.));
#452=DIRECTION('ref_axis',(0.,0.,-1.));
#453=DIRECTION('center_axis',(-1.,0.,0.));
#454=DIRECTION('ref_axis',(0.,0.,1.));
#455=DIRECTION('center_axis',(1.,0.,0.));
#456=DIRECTION('ref_axis',(0.,0.,-1.));
#457=DIRECTION('center_axis',(-1.,0.,0.));
#458=DIRECTION('ref_axis',(0.,1.,0.));
#459=DIRECTION('center_axis',(1.,0.,0.));
#460=DIRECTION('ref_axis',(0.,0.,-1.));
#461=DIRECTION('center_axis',(1.,0.,0.));
#462=DIRECTION('ref_axis',(0.,0.,-1.));
#463=DIRECTION('center_axis',(1.,0.,0.));
#464=DIRECTION('ref_axis',(0.,0.,-1.));
#465=DIRECTION('center_axis',(1.,0.,0.));
#466=DIRECTION('ref_axis',(0.,0.,-1.));
#467=DIRECTION('center_axis',(1.,0.,0.));
#468=DIRECTION('ref_axis',(0.,0.,-1.));
#469=DIRECTION('center_axis',(1.,0.,0.));
#470=DIRECTION('ref_axis',(0.,1.,0.));
#471=DIRECTION('center_axis',(1.,0.,0.));
#472=DIRECTION('ref_axis',(0.,0.,-1.));
#473=DIRECTION('center_axis',(-1.,0.,0.));
#474=DIRECTION('ref_axis',(0.,1.,0.));
#475=DIRECTION('center_axis',(1.,0.,0.));
#476=DIRECTION('ref_axis',(0.,0.,-1.));
#477=DIRECTION('center_axis',(1.,0.,0.));
#478=DIRECTION('ref_axis',(0.,1.,0.));
#479=DIRECTION('center_axis',(1.,0.,0.));
#480=DIRECTION('ref_axis',(0.,0.,-1.));
#481=DIRECTION('center_axis',(-1.,0.,0.));
#482=DIRECTION('ref_axis',(0.,1.,0.));
#483=DIRECTION('center_axis',(1.,0.,0.));
#484=DIRECTION('ref_axis',(0.,0.,-1.));
#485=DIRECTION('center_axis',(-1.,0.,0.));
#486=DIRECTION('ref_axis',(0.,0.,1.));
#487=DIRECTION('center_axis',(1.,0.,0.));
#488=DIRECTION('ref_axis',(0.,0.,-1.));
#489=DIRECTION('center_axis',(1.,0.,0.));
#490=DIRECTION('ref_axis',(0.,0.,-1.));
#491=DIRECTION('center_axis',(1.,0.,0.));
#492=DIRECTION('ref_axis',(0.,0.,-1.));
#493=DIRECTION('center_axis',(1.,0.,0.));
#494=DIRECTION('ref_axis',(0.,1.,0.));
#495=CARTESIAN_POINT('',(0.,0.,0.));
#496=CARTESIAN_POINT('Origin',(9.775,0.,0.));
#497=CARTESIAN_POINT('',(9.35,5.15,0.));
#498=CARTESIAN_POINT('Origin',(9.35,0.,0.));
#499=CARTESIAN_POINT('',(10.2,6.,0.));
#500=CARTESIAN_POINT('Origin',(10.2,0.,0.));
#501=CARTESIAN_POINT('Origin',(10.75,0.,0.));
#502=CARTESIAN_POINT('',(11.3,6.,0.));
#503=CARTESIAN_POINT('Origin',(11.3,0.,0.));
#504=CARTESIAN_POINT('Origin',(11.7,0.,0.));
#505=CARTESIAN_POINT('',(12.1,5.2,0.));
#506=CARTESIAN_POINT('Origin',(12.1,0.,0.));
#507=CARTESIAN_POINT('Origin',(13.025,0.,0.));
#508=CARTESIAN_POINT('',(13.95,5.2,0.));
#509=CARTESIAN_POINT('Origin',(13.95,0.,0.));
#510=CARTESIAN_POINT('Origin',(14.4551814855409,0.,0.));
#511=CARTESIAN_POINT('',(14.9603629710818,6.95,0.));
#512=CARTESIAN_POINT('Origin',(14.9603629710818,0.,0.));
#513=CARTESIAN_POINT('Origin',(18.7301814855409,0.,0.));
#514=CARTESIAN_POINT('',(22.5,6.95,0.));
#515=CARTESIAN_POINT('Origin',(22.5,0.,0.));
#516=CARTESIAN_POINT('Origin',(22.5,0.,0.));
#517=CARTESIAN_POINT('',(23.5,7.95,0.));
#518=CARTESIAN_POINT('Origin',(23.5,0.,0.));
#519=CARTESIAN_POINT('Origin',(23.5,8.5,0.));
#520=CARTESIAN_POINT('',(23.5,8.5,0.));
#521=CARTESIAN_POINT('Origin',(23.5,0.,0.));
#522=CARTESIAN_POINT('Origin',(24.,0.,0.));
#523=CARTESIAN_POINT('',(24.,9.,0.));
#524=CARTESIAN_POINT('Origin',(24.,0.,0.));
#525=CARTESIAN_POINT('Origin',(24.375,0.,0.));
#526=CARTESIAN_POINT('',(24.75,9.,0.));
#527=CARTESIAN_POINT('Origin',(24.75,0.,0.));
#528=CARTESIAN_POINT('Origin',(24.75,0.,0.));
#529=CARTESIAN_POINT('',(25.25,8.5,0.));
#530=CARTESIAN_POINT('Origin',(25.25,0.,0.));
#531=CARTESIAN_POINT('Origin',(25.25,5.,0.));
#532=CARTESIAN_POINT('',(25.25,5.,0.));
#533=CARTESIAN_POINT('Origin',(25.25,0.,0.));
#534=CARTESIAN_POINT('Origin',(27.25,0.,0.));
#535=CARTESIAN_POINT('',(27.25,3.,0.));
#536=CARTESIAN_POINT('Origin',(27.25,0.,0.));
#537=CARTESIAN_POINT('Origin',(32.75,0.,0.));
#538=CARTESIAN_POINT('',(38.25,3.,0.));
#539=CARTESIAN_POINT('Origin',(38.25,0.,0.));
#540=CARTESIAN_POINT('Origin',(38.25,3.55,0.));
#541=CARTESIAN_POINT('',(38.25,3.55,0.));
#542=CARTESIAN_POINT('Origin',(38.25,0.,0.));
#543=CARTESIAN_POINT('Origin',(39.8096025003949,0.,0.));
#544=CARTESIAN_POINT('',(41.3692050007897,3.,0.));
#545=CARTESIAN_POINT('Origin',(41.3692050007897,0.,0.));
#546=CARTESIAN_POINT('Origin',(42.0596025003949,0.,0.));
#547=CARTESIAN_POINT('',(42.75,3.,0.));
#548=CARTESIAN_POINT('Origin',(42.75,0.,0.));
#549=CARTESIAN_POINT('Origin',(42.75,3.55,0.));
#550=CARTESIAN_POINT('',(42.75,3.55,0.));
#551=CARTESIAN_POINT('Origin',(42.75,0.,0.));
#552=CARTESIAN_POINT('Origin',(44.8888228567654,0.,0.));
#553=CARTESIAN_POINT('',(47.0276457135308,2.40380828555299,0.));
#554=CARTESIAN_POINT('Origin',(47.0276457135308,0.,0.));
#555=CARTESIAN_POINT('Origin',(46.95,0.,0.));
#556=CARTESIAN_POINT('',(47.25,2.11403053766626,0.));
#557=CARTESIAN_POINT('Origin',(47.25,0.,0.));
#558=CARTESIAN_POINT('Origin',(47.25,1.8,0.));
#559=CARTESIAN_POINT('',(47.25,1.8,0.));
#560=CARTESIAN_POINT('Origin',(47.25,0.,0.));
#561=CARTESIAN_POINT('Origin',(35.725,0.,0.));
#562=CARTESIAN_POINT('',(24.2,1.8,0.));
#563=CARTESIAN_POINT('Origin',(24.2,0.,0.));
#564=CARTESIAN_POINT('Origin',(23.35,0.,0.));
#565=CARTESIAN_POINT('',(22.5,3.5,0.));
#566=CARTESIAN_POINT('Origin',(22.5,0.,0.));
#567=CARTESIAN_POINT('Origin',(11.4665063509461,0.,0.));
#568=CARTESIAN_POINT('',(0.433012701892222,3.5,0.));
#569=CARTESIAN_POINT('Origin',(0.433012701892221,0.,0.));
#570=CARTESIAN_POINT('Origin',(0.216506350946111,0.,0.));
#571=CARTESIAN_POINT('',(0.,3.75,0.));
#572=CARTESIAN_POINT('Origin',(0.,0.,0.));
#573=CARTESIAN_POINT('Origin',(0.,4.65,0.));
#574=CARTESIAN_POINT('',(0.,4.65,0.));
#575=CARTESIAN_POINT('Origin',(0.,0.,0.));
#576=CARTESIAN_POINT('Origin',(0.5,0.,0.));
#577=CARTESIAN_POINT('',(0.5,5.15,0.));
#578=CARTESIAN_POINT('Origin',(0.5,0.,0.));
#579=CARTESIAN_POINT('Origin',(4.925,0.,0.));
#580=UNCERTAINTY_MEASURE_WITH_UNIT(LENGTH_MEASURE(0.01),#584,
'DISTANCE_ACCURACY_VALUE',
'Maximum model space distance between geometric entities at asserted c
onnectivities');
#581=UNCERTAINTY_MEASURE_WITH_UNIT(LENGTH_MEASURE(1.E-6),#584,
'DISTANCE_ACCURACY_VALUE',
'Maximum model space distance between geometric entities at asserted c
onnectivities');
#582=(
GEOMETRIC_REPRESENTATION_CONTEXT(3)
GLOBAL_UNCERTAINTY_ASSIGNED_CONTEXT((#580))
GLOBAL_UNIT_ASSIGNED_CONTEXT((#584,#587,#585))
REPRESENTATION_CONTEXT('','3D')
);
#583=(
GEOMETRIC_REPRESENTATION_CONTEXT(3)
GLOBAL_UNCERTAINTY_ASSIGNED_CONTEXT((#581))
GLOBAL_UNIT_ASSIGNED_CONTEXT((#584,#587,#585))
REPRESENTATION_CONTEXT('','3D')
);
#584=(
LENGTH_UNIT()
NAMED_UNIT(*)
SI_UNIT(.MILLI.,.METRE.)
);
#585=(
NAMED_UNIT(*)
SI_UNIT($,.STERADIAN.)
SOLID_ANGLE_UNIT()
);
#586=DIMENSIONAL_EXPONENTS(0.,0.,0.,0.,0.,0.,0.);
#587=(
CONVERSION_BASED_UNIT('degree',#589)
NAMED_UNIT(#586)
PLANE_ANGLE_UNIT()
);
#588=(
NAMED_UNIT(*)
PLANE_ANGLE_UNIT()
SI_UNIT($,.RADIAN.)
);
#589=PLANE_ANGLE_MEASURE_WITH_UNIT(PLANE_ANGLE_MEASURE(0.01745329252),#588);
#590=SHAPE_DEFINITION_REPRESENTATION(#591,#592);
#591=PRODUCT_DEFINITION_SHAPE('',$,#594);
#592=SHAPE_REPRESENTATION('',(#324),#582);
#593=PRODUCT_DEFINITION_CONTEXT('part definition',#598,'design');
#594=PRODUCT_DEFINITION('48SFTF06FXX','48SFTF06FXX',#595,#593);
#595=PRODUCT_DEFINITION_FORMATION('',$,#600);
#596=PRODUCT_RELATED_PRODUCT_CATEGORY('48SFTF06FXX','48SFTF06FXX',(#600));
#597=APPLICATION_PROTOCOL_DEFINITION('international standard',
'automotive_design',2009,#598);
#598=APPLICATION_CONTEXT(
'Core Data for Automotive Mechanical Design Process');
#599=PRODUCT_CONTEXT('part definition',#598,'mechanical');
#600=PRODUCT('48SFTF06FXX','48SFTF06FXX',$,(#599));
#601=PRESENTATION_STYLE_ASSIGNMENT((#602));
#602=SURFACE_STYLE_USAGE(.BOTH.,#603);
#603=SURFACE_SIDE_STYLE('',(#604));
#604=SURFACE_STYLE_FILL_AREA(#605);
#605=FILL_AREA_STYLE('',(#606));
#606=FILL_AREA_STYLE_COLOUR('',#607);
#607=COLOUR_RGB('',1.,1.,1.);
ENDSEC;
END-ISO-10303-21;
