ISO-10303-21;
HEADER;
FILE_DESCRIPTION(('STEP AP214'),'1');
FILE_NAME('C:/PartsXMLTools/RobotParts/Generated/STEP_SAT/CAD/Temp/0124_08_00.stp','2016-07-07T14:22:24',('TraceParts'),('TraceParts S.A.'),'Spatial InterOp 3D',' ',' ');
FILE_SCHEMA(('automotive_design'));
ENDSEC;
DATA;
#1=PRODUCT_DEFINITION_CONTEXT('',#9,'design');
#2=APPLICATION_PROTOCOL_DEFINITION('INTERNATIONAL STANDARD','automotive_design',1994,#9);
#3=PRODUCT_CATEGORY_RELATIONSHIP('NONE','NONE',#10,#11);
#4=SHAPE_DEFINITION_REPRESENTATION(#12,#13);
#5= (GEOMETRIC_REPRESENTATION_CONTEXT(3)GLOBAL_UNCERTAINTY_ASSIGNED_CONTEXT((#16))GLOBAL_UNIT_ASSIGNED_CONTEXT((#18,#19,#20))REPRESENTATION_CONTEXT('NONE','WORKSPACE'));
#9=APPLICATION_CONTEXT(' ');
#10=PRODUCT_CATEGORY('part','NONE');
#11=PRODUCT_RELATED_PRODUCT_CATEGORY('detail',' ',(#22));
#12=PRODUCT_DEFINITION_SHAPE('NONE','NONE',#23);
#13=ADVANCED_BREP_SHAPE_REPRESENTATION('0124-08-00',(#24,#25),#5);
#16=UNCERTAINTY_MEASURE_WITH_UNIT(LENGTH_MEASURE(1.0E-006),#18,'','');
#18= (CONVERSION_BASED_UNIT('MILLIMETRE',#28)LENGTH_UNIT()NAMED_UNIT(#31));
#19= (NAMED_UNIT(#33)PLANE_ANGLE_UNIT()SI_UNIT($,.RADIAN.));
#20= (NAMED_UNIT(#33)SOLID_ANGLE_UNIT()SI_UNIT($,.STERADIAN.));
#22=PRODUCT('0124-08-00','0124-08-00','PART-0124-08-00-DESC',(#39));
#23=PRODUCT_DEFINITION('NONE','NONE',#40,#1);
#24=MANIFOLD_SOLID_BREP('0124-08-00',#41);
#25=AXIS2_PLACEMENT_3D('',#42,#43,#44);
#28=LENGTH_MEASURE_WITH_UNIT(LENGTH_MEASURE(1.0),#45);
#31=DIMENSIONAL_EXPONENTS(1.0,0.0,0.0,0.0,0.0,0.0,0.0);
#33=DIMENSIONAL_EXPONENTS(0.0,0.0,0.0,0.0,0.0,0.0,0.0);
#39=PRODUCT_CONTEXT('',#9,'mechanical');
#40=PRODUCT_DEFINITION_FORMATION_WITH_SPECIFIED_SOURCE(' ','NONE',#22,.NOT_KNOWN.);
#41=CLOSED_SHELL('',(#46,#47,#48,#49,#50,#51,#52,#53,#54,#55,#56,#57,#58,#59));
#42=CARTESIAN_POINT('',(0.0,0.0,0.0));
#43=DIRECTION('',(0.0,0.0,1.0));
#44=DIRECTION('',(1.0,0.0,0.0));
#45= (NAMED_UNIT(#31)LENGTH_UNIT()SI_UNIT(.MILLI.,.METRE.));
#46=ADVANCED_FACE('',(#61),#62,.F.);
#47=ADVANCED_FACE('',(#63),#64,.F.);
#48=ADVANCED_FACE('',(#65,#66),#67,.T.);
#49=ADVANCED_FACE('',(#68),#69,.T.);
#50=ADVANCED_FACE('',(#70),#71,.T.);
#51=ADVANCED_FACE('',(#72),#73,.T.);
#52=ADVANCED_FACE('',(#74),#75,.T.);
#53=ADVANCED_FACE('',(#76),#77,.T.);
#54=ADVANCED_FACE('',(#78),#79,.T.);
#55=ADVANCED_FACE('',(#80),#81,.T.);
#56=ADVANCED_FACE('',(#82),#83,.T.);
#57=ADVANCED_FACE('',(#84),#85,.T.);
#58=ADVANCED_FACE('',(#86),#87,.T.);
#59=ADVANCED_FACE('',(#88,#89),#90,.F.);
#61=FACE_OUTER_BOUND('',#91,.T.);
#62=CYLINDRICAL_SURFACE('',#92,4.0);
#63=FACE_OUTER_BOUND('',#93,.T.);
#64=CYLINDRICAL_SURFACE('',#94,4.0);
#65=FACE_OUTER_BOUND('',#95,.T.);
#66=FACE_BOUND('',#96,.T.);
#67=PLANE('',#97);
#68=FACE_OUTER_BOUND('',#98,.T.);
#69=CYLINDRICAL_SURFACE('',#99,4.4);
#70=FACE_OUTER_BOUND('',#100,.T.);
#71=CYLINDRICAL_SURFACE('',#101,4.4);
#72=FACE_OUTER_BOUND('',#102,.T.);
#73=CONICAL_SURFACE('',#103,4.825,0.7853981633973);
#74=FACE_OUTER_BOUND('',#104,.T.);
#75=CONICAL_SURFACE('',#105,4.825,0.7853981633973);
#76=FACE_OUTER_BOUND('',#106,.T.);
#77=CYLINDRICAL_SURFACE('',#107,5.25);
#78=FACE_OUTER_BOUND('',#108,.T.);
#79=CYLINDRICAL_SURFACE('',#109,5.25);
#80=FACE_OUTER_BOUND('',#110,.T.);
#81=CONICAL_SURFACE('',#111,4.825,0.7853981633973);
#82=FACE_OUTER_BOUND('',#112,.T.);
#83=CONICAL_SURFACE('',#113,4.825,0.7853981633973);
#84=FACE_OUTER_BOUND('',#114,.T.);
#85=CYLINDRICAL_SURFACE('',#115,4.4);
#86=FACE_OUTER_BOUND('',#116,.T.);
#87=CYLINDRICAL_SURFACE('',#117,4.4);
#88=FACE_OUTER_BOUND('',#118,.T.);
#89=FACE_BOUND('',#119,.T.);
#90=PLANE('',#120);
#91=EDGE_LOOP('',(#121,#122,#123,#124));
#92=AXIS2_PLACEMENT_3D('',#125,#126,#127);
#93=EDGE_LOOP('',(#128,#129,#130,#131));
#94=AXIS2_PLACEMENT_3D('',#132,#133,#134);
#95=EDGE_LOOP('',(#135,#136));
#96=EDGE_LOOP('',(#137,#138));
#97=AXIS2_PLACEMENT_3D('',#139,#140,#141);
#98=EDGE_LOOP('',(#142,#143,#144,#145));
#99=AXIS2_PLACEMENT_3D('',#146,#147,#148);
#100=EDGE_LOOP('',(#149,#150,#151,#152));
#101=AXIS2_PLACEMENT_3D('',#153,#154,#155);
#102=EDGE_LOOP('',(#156,#157,#158,#159));
#103=AXIS2_PLACEMENT_3D('',#160,#161,#162);
#104=EDGE_LOOP('',(#163,#164,#165,#166));
#105=AXIS2_PLACEMENT_3D('',#167,#168,#169);
#106=EDGE_LOOP('',(#170,#171,#172,#173));
#107=AXIS2_PLACEMENT_3D('',#174,#175,#176);
#108=EDGE_LOOP('',(#177,#178,#179,#180));
#109=AXIS2_PLACEMENT_3D('',#181,#182,#183);
#110=EDGE_LOOP('',(#184,#185,#186,#187));
#111=AXIS2_PLACEMENT_3D('',#188,#189,#190);
#112=EDGE_LOOP('',(#191,#192,#193,#194));
#113=AXIS2_PLACEMENT_3D('',#195,#196,#197);
#114=EDGE_LOOP('',(#198,#199,#200,#201));
#115=AXIS2_PLACEMENT_3D('',#202,#203,#204);
#116=EDGE_LOOP('',(#205,#206,#207,#208));
#117=AXIS2_PLACEMENT_3D('',#209,#210,#211);
#118=EDGE_LOOP('',(#212,#213));
#119=EDGE_LOOP('',(#214,#215));
#120=AXIS2_PLACEMENT_3D('',#216,#217,#218);
#121=ORIENTED_EDGE('',*,*,#219,.T.);
#122=ORIENTED_EDGE('',*,*,#220,.F.);
#123=ORIENTED_EDGE('',*,*,#221,.F.);
#124=ORIENTED_EDGE('',*,*,#222,.T.);
#125=CARTESIAN_POINT('',(-3.85,0.0,0.0));
#126=DIRECTION('',(-1.0,-0.0,0.0));
#127=DIRECTION('',(0.0,-1.0,0.0));
#128=ORIENTED_EDGE('',*,*,#223,.T.);
#129=ORIENTED_EDGE('',*,*,#220,.T.);
#130=ORIENTED_EDGE('',*,*,#224,.F.);
#131=ORIENTED_EDGE('',*,*,#222,.F.);
#132=CARTESIAN_POINT('',(-3.85,0.0,0.0));
#133=DIRECTION('',(-1.0,-0.0,0.0));
#134=DIRECTION('',(0.0,-1.0,0.0));
#135=ORIENTED_EDGE('',*,*,#225,.F.);
#136=ORIENTED_EDGE('',*,*,#226,.T.);
#137=ORIENTED_EDGE('',*,*,#219,.F.);
#138=ORIENTED_EDGE('',*,*,#224,.T.);
#139=CARTESIAN_POINT('',(3.5,0.0,0.0));
#140=DIRECTION('',(1.0,0.0,0.0));
#141=DIRECTION('',(0.0,1.0,-0.0));
#142=ORIENTED_EDGE('',*,*,#227,.T.);
#143=ORIENTED_EDGE('',*,*,#228,.F.);
#144=ORIENTED_EDGE('',*,*,#226,.F.);
#145=ORIENTED_EDGE('',*,*,#229,.T.);
#146=CARTESIAN_POINT('',(-3.85,0.0,0.0));
#147=DIRECTION('',(-1.0,-0.0,0.0));
#148=DIRECTION('',(0.0,-1.0,0.0));
#149=ORIENTED_EDGE('',*,*,#225,.T.);
#150=ORIENTED_EDGE('',*,*,#228,.T.);
#151=ORIENTED_EDGE('',*,*,#230,.F.);
#152=ORIENTED_EDGE('',*,*,#229,.F.);
#153=CARTESIAN_POINT('',(-3.85,0.0,0.0));
#154=DIRECTION('',(-1.0,-0.0,0.0));
#155=DIRECTION('',(0.0,-1.0,0.0));
#156=ORIENTED_EDGE('',*,*,#230,.T.);
#157=ORIENTED_EDGE('',*,*,#231,.T.);
#158=ORIENTED_EDGE('',*,*,#232,.F.);
#159=ORIENTED_EDGE('',*,*,#233,.F.);
#160=CARTESIAN_POINT('',(2.075,0.0,0.0));
#161=DIRECTION('',(-1.0,0.0,-0.0));
#162=DIRECTION('',(0.0,1.0,0.0));
#163=ORIENTED_EDGE('',*,*,#234,.T.);
#164=ORIENTED_EDGE('',*,*,#231,.F.);
#165=ORIENTED_EDGE('',*,*,#227,.F.);
#166=ORIENTED_EDGE('',*,*,#233,.T.);
#167=CARTESIAN_POINT('',(2.075,0.0,0.0));
#168=DIRECTION('',(-1.0,0.0,-0.0));
#169=DIRECTION('',(0.0,1.0,0.0));
#170=ORIENTED_EDGE('',*,*,#235,.T.);
#171=ORIENTED_EDGE('',*,*,#236,.F.);
#172=ORIENTED_EDGE('',*,*,#234,.F.);
#173=ORIENTED_EDGE('',*,*,#237,.T.);
#174=CARTESIAN_POINT('',(-3.85,0.0,0.0));
#175=DIRECTION('',(-1.0,-0.0,0.0));
#176=DIRECTION('',(0.0,-1.0,0.0));
#177=ORIENTED_EDGE('',*,*,#232,.T.);
#178=ORIENTED_EDGE('',*,*,#236,.T.);
#179=ORIENTED_EDGE('',*,*,#238,.F.);
#180=ORIENTED_EDGE('',*,*,#237,.F.);
#181=CARTESIAN_POINT('',(-3.85,0.0,0.0));
#182=DIRECTION('',(-1.0,-0.0,0.0));
#183=DIRECTION('',(0.0,-1.0,0.0));
#184=ORIENTED_EDGE('',*,*,#238,.T.);
#185=ORIENTED_EDGE('',*,*,#239,.T.);
#186=ORIENTED_EDGE('',*,*,#240,.F.);
#187=ORIENTED_EDGE('',*,*,#241,.F.);
#188=CARTESIAN_POINT('',(-2.075,0.0,0.0));
#189=DIRECTION('',(1.0,0.0,-0.0));
#190=DIRECTION('',(0.0,-1.0,0.0));
#191=ORIENTED_EDGE('',*,*,#242,.T.);
#192=ORIENTED_EDGE('',*,*,#239,.F.);
#193=ORIENTED_EDGE('',*,*,#235,.F.);
#194=ORIENTED_EDGE('',*,*,#241,.T.);
#195=CARTESIAN_POINT('',(-2.075,0.0,0.0));
#196=DIRECTION('',(1.0,0.0,-0.0));
#197=DIRECTION('',(0.0,-1.0,0.0));
#198=ORIENTED_EDGE('',*,*,#243,.T.);
#199=ORIENTED_EDGE('',*,*,#244,.F.);
#200=ORIENTED_EDGE('',*,*,#242,.F.);
#201=ORIENTED_EDGE('',*,*,#245,.T.);
#202=CARTESIAN_POINT('',(-3.85,0.0,0.0));
#203=DIRECTION('',(-1.0,-0.0,0.0));
#204=DIRECTION('',(0.0,-1.0,0.0));
#205=ORIENTED_EDGE('',*,*,#240,.T.);
#206=ORIENTED_EDGE('',*,*,#244,.T.);
#207=ORIENTED_EDGE('',*,*,#246,.F.);
#208=ORIENTED_EDGE('',*,*,#245,.F.);
#209=CARTESIAN_POINT('',(-3.85,0.0,0.0));
#210=DIRECTION('',(-1.0,-0.0,0.0));
#211=DIRECTION('',(0.0,-1.0,0.0));
#212=ORIENTED_EDGE('',*,*,#243,.F.);
#213=ORIENTED_EDGE('',*,*,#246,.T.);
#214=ORIENTED_EDGE('',*,*,#223,.F.);
#215=ORIENTED_EDGE('',*,*,#221,.T.);
#216=CARTESIAN_POINT('',(-3.5,0.0,0.0));
#217=DIRECTION('',(1.0,0.0,0.0));
#218=DIRECTION('',(0.0,1.0,-0.0));
#219=EDGE_CURVE('',#247,#248,#249,.T.);
#220=EDGE_CURVE('',#250,#248,#251,.T.);
#221=EDGE_CURVE('',#252,#250,#253,.T.);
#222=EDGE_CURVE('',#252,#247,#254,.T.);
#223=EDGE_CURVE('',#252,#250,#255,.T.);
#224=EDGE_CURVE('',#247,#248,#256,.T.);
#225=EDGE_CURVE('',#257,#258,#259,.T.);
#226=EDGE_CURVE('',#257,#258,#260,.T.);
#227=EDGE_CURVE('',#261,#262,#263,.T.);
#228=EDGE_CURVE('',#258,#262,#264,.T.);
#229=EDGE_CURVE('',#257,#261,#265,.T.);
#230=EDGE_CURVE('',#261,#262,#266,.T.);
#231=EDGE_CURVE('',#262,#267,#268,.T.);
#232=EDGE_CURVE('',#269,#267,#270,.T.);
#233=EDGE_CURVE('',#261,#269,#271,.T.);
#234=EDGE_CURVE('',#269,#267,#272,.T.);
#235=EDGE_CURVE('',#273,#274,#275,.T.);
#236=EDGE_CURVE('',#267,#274,#276,.T.);
#237=EDGE_CURVE('',#269,#273,#277,.T.);
#238=EDGE_CURVE('',#273,#274,#278,.T.);
#239=EDGE_CURVE('',#274,#279,#280,.T.);
#240=EDGE_CURVE('',#281,#279,#282,.T.);
#241=EDGE_CURVE('',#273,#281,#283,.T.);
#242=EDGE_CURVE('',#281,#279,#284,.T.);
#243=EDGE_CURVE('',#285,#286,#287,.T.);
#244=EDGE_CURVE('',#279,#286,#288,.T.);
#245=EDGE_CURVE('',#281,#285,#289,.T.);
#246=EDGE_CURVE('',#285,#286,#290,.T.);
#247=VERTEX_POINT('',#291);
#248=VERTEX_POINT('',#292);
#249=CIRCLE('',#293,4.0);
#250=VERTEX_POINT('',#294);
#251=LINE('',#295,#296);
#252=VERTEX_POINT('',#297);
#253=CIRCLE('',#298,4.0);
#254=LINE('',#299,#300);
#255=CIRCLE('',#301,4.0);
#256=CIRCLE('',#302,4.0);
#257=VERTEX_POINT('',#303);
#258=VERTEX_POINT('',#304);
#259=CIRCLE('',#305,4.4);
#260=CIRCLE('',#306,4.4);
#261=VERTEX_POINT('',#307);
#262=VERTEX_POINT('',#308);
#263=CIRCLE('',#309,4.4);
#264=LINE('',#310,#311);
#265=LINE('',#312,#313);
#266=CIRCLE('',#314,4.4);
#267=VERTEX_POINT('',#315);
#268=LINE('',#316,#317);
#269=VERTEX_POINT('',#318);
#270=CIRCLE('',#319,5.25);
#271=LINE('',#320,#321);
#272=CIRCLE('',#322,5.25);
#273=VERTEX_POINT('',#323);
#274=VERTEX_POINT('',#324);
#275=CIRCLE('',#325,5.25);
#276=LINE('',#326,#327);
#277=LINE('',#328,#329);
#278=CIRCLE('',#330,5.25);
#279=VERTEX_POINT('',#331);
#280=LINE('',#332,#333);
#281=VERTEX_POINT('',#334);
#282=CIRCLE('',#335,4.4);
#283=LINE('',#336,#337);
#284=CIRCLE('',#338,4.4);
#285=VERTEX_POINT('',#339);
#286=VERTEX_POINT('',#340);
#287=CIRCLE('',#341,4.4);
#288=LINE('',#342,#343);
#289=LINE('',#344,#345);
#290=CIRCLE('',#346,4.4);
#291=CARTESIAN_POINT('',(3.5,4.0,0.0));
#292=CARTESIAN_POINT('',(3.5,-4.0,0.0));
#293=AXIS2_PLACEMENT_3D('',#347,#348,#349);
#294=CARTESIAN_POINT('',(-3.5,-4.0,0.0));
#295=CARTESIAN_POINT('',(-3.5,-4.0,0.0));
#296=VECTOR('',#350,7.0);
#297=CARTESIAN_POINT('',(-3.5,4.0,0.0));
#298=AXIS2_PLACEMENT_3D('',#351,#352,#353);
#299=CARTESIAN_POINT('',(-3.5,4.0,0.0));
#300=VECTOR('',#354,7.0);
#301=AXIS2_PLACEMENT_3D('',#355,#356,#357);
#302=AXIS2_PLACEMENT_3D('',#358,#359,#360);
#303=CARTESIAN_POINT('',(3.5,4.4,0.0));
#304=CARTESIAN_POINT('',(3.5,-4.4,0.0));
#305=AXIS2_PLACEMENT_3D('',#361,#362,#363);
#306=AXIS2_PLACEMENT_3D('',#364,#365,#366);
#307=CARTESIAN_POINT('',(2.5,4.4,0.0));
#308=CARTESIAN_POINT('',(2.5,-4.4,0.0));
#309=AXIS2_PLACEMENT_3D('',#367,#368,#369);
#310=CARTESIAN_POINT('',(3.5,-4.4,0.0));
#311=VECTOR('',#370,1.0);
#312=CARTESIAN_POINT('',(3.5,4.4,0.0));
#313=VECTOR('',#371,1.0);
#314=AXIS2_PLACEMENT_3D('',#372,#373,#374);
#315=CARTESIAN_POINT('',(1.65,-5.25,0.0));
#316=CARTESIAN_POINT('',(2.5,-4.4,0.0));
#317=VECTOR('',#375,1.202081528017);
#318=CARTESIAN_POINT('',(1.65,5.25,0.0));
#319=AXIS2_PLACEMENT_3D('',#376,#377,#378);
#320=CARTESIAN_POINT('',(2.5,4.4,0.0));
#321=VECTOR('',#379,1.202081528017);
#322=AXIS2_PLACEMENT_3D('',#380,#381,#382);
#323=CARTESIAN_POINT('',(-1.65,5.25,0.0));
#324=CARTESIAN_POINT('',(-1.65,-5.25,0.0));
#325=AXIS2_PLACEMENT_3D('',#383,#384,#385);
#326=CARTESIAN_POINT('',(1.65,-5.25,0.0));
#327=VECTOR('',#386,3.3);
#328=CARTESIAN_POINT('',(1.65,5.25,0.0));
#329=VECTOR('',#387,3.3);
#330=AXIS2_PLACEMENT_3D('',#388,#389,#390);
#331=CARTESIAN_POINT('',(-2.5,-4.4,0.0));
#332=CARTESIAN_POINT('',(-1.65,-5.25,0.0));
#333=VECTOR('',#391,1.202081528017);
#334=CARTESIAN_POINT('',(-2.5,4.4,0.0));
#335=AXIS2_PLACEMENT_3D('',#392,#393,#394);
#336=CARTESIAN_POINT('',(-1.65,5.25,0.0));
#337=VECTOR('',#395,1.202081528017);
#338=AXIS2_PLACEMENT_3D('',#396,#397,#398);
#339=CARTESIAN_POINT('',(-3.5,4.4,0.0));
#340=CARTESIAN_POINT('',(-3.5,-4.4,0.0));
#341=AXIS2_PLACEMENT_3D('',#399,#400,#401);
#342=CARTESIAN_POINT('',(-2.5,-4.4,0.0));
#343=VECTOR('',#402,1.0);
#344=CARTESIAN_POINT('',(-2.5,4.4,0.0));
#345=VECTOR('',#403,1.0);
#346=AXIS2_PLACEMENT_3D('',#404,#405,#406);
#347=CARTESIAN_POINT('',(3.5,0.0,0.0));
#348=DIRECTION('',(1.0,0.0,0.0));
#349=DIRECTION('',(0.0,1.0,0.0));
#350=DIRECTION('',(1.0,0.0,0.0));
#351=CARTESIAN_POINT('',(-3.5,0.0,0.0));
#352=DIRECTION('',(1.0,0.0,0.0));
#353=DIRECTION('',(0.0,1.0,0.0));
#354=DIRECTION('',(1.0,0.0,0.0));
#355=CARTESIAN_POINT('',(-3.5,0.0,0.0));
#356=DIRECTION('',(-1.0,0.0,0.0));
#357=DIRECTION('',(0.0,1.0,0.0));
#358=CARTESIAN_POINT('',(3.5,0.0,0.0));
#359=DIRECTION('',(-1.0,0.0,0.0));
#360=DIRECTION('',(0.0,1.0,0.0));
#361=CARTESIAN_POINT('',(3.5,0.0,0.0));
#362=DIRECTION('',(-1.0,0.0,0.0));
#363=DIRECTION('',(0.0,1.0,0.0));
#364=CARTESIAN_POINT('',(3.5,0.0,0.0));
#365=DIRECTION('',(1.0,0.0,0.0));
#366=DIRECTION('',(0.0,1.0,0.0));
#367=CARTESIAN_POINT('',(2.5,0.0,0.0));
#368=DIRECTION('',(1.0,0.0,0.0));
#369=DIRECTION('',(0.0,1.0,0.0));
#370=DIRECTION('',(-1.0,0.0,0.0));
#371=DIRECTION('',(-1.0,0.0,0.0));
#372=CARTESIAN_POINT('',(2.5,0.0,0.0));
#373=DIRECTION('',(-1.0,0.0,0.0));
#374=DIRECTION('',(0.0,1.0,0.0));
#375=DIRECTION('',(-0.707106781186548,-0.707106781186548,0.0));
#376=CARTESIAN_POINT('',(1.65,0.0,0.0));
#377=DIRECTION('',(-1.0,0.0,0.0));
#378=DIRECTION('',(0.0,1.0,0.0));
#379=DIRECTION('',(-0.707106781186548,0.707106781186548,0.0));
#380=CARTESIAN_POINT('',(1.65,0.0,0.0));
#381=DIRECTION('',(1.0,0.0,0.0));
#382=DIRECTION('',(0.0,1.0,0.0));
#383=CARTESIAN_POINT('',(-1.65,0.0,0.0));
#384=DIRECTION('',(1.0,0.0,0.0));
#385=DIRECTION('',(0.0,1.0,0.0));
#386=DIRECTION('',(-1.0,0.0,0.0));
#387=DIRECTION('',(-1.0,0.0,0.0));
#388=CARTESIAN_POINT('',(-1.65,0.0,0.0));
#389=DIRECTION('',(-1.0,0.0,0.0));
#390=DIRECTION('',(0.0,1.0,0.0));
#391=DIRECTION('',(-0.707106781186548,0.707106781186548,0.0));
#392=CARTESIAN_POINT('',(-2.5,0.0,0.0));
#393=DIRECTION('',(-1.0,0.0,0.0));
#394=DIRECTION('',(0.0,1.0,0.0));
#395=DIRECTION('',(-0.707106781186548,-0.707106781186548,0.0));
#396=CARTESIAN_POINT('',(-2.5,0.0,0.0));
#397=DIRECTION('',(1.0,0.0,0.0));
#398=DIRECTION('',(0.0,1.0,0.0));
#399=CARTESIAN_POINT('',(-3.5,0.0,0.0));
#400=DIRECTION('',(1.0,0.0,0.0));
#401=DIRECTION('',(0.0,1.0,0.0));
#402=DIRECTION('',(-1.0,0.0,0.0));
#403=DIRECTION('',(-1.0,0.0,0.0));
#404=CARTESIAN_POINT('',(-3.5,0.0,0.0));
#405=DIRECTION('',(-1.0,0.0,0.0));
#406=DIRECTION('',(0.0,1.0,0.0));
ENDSEC;
END-ISO-10303-21;
