ISO-10303-21;
HEADER;
/****************************************************************
 * Generated by software with PDElib inside                    *
 * PDElib Version v51a, created Wed 11/30/2011                  *
 * ITI Transcendata (http://www.transcendata.com/)              *
 ****************************************************************/
FILE_DESCRIPTION((''),'2;1');
FILE_NAME('J:\\003 3D Zeichnungen_step\\Serie 38\\38sftf13mxn.stp','2014-11-14T08:08:45',('IA176480'),(''),'Autodesk Inventor 2013','Autodesk Inventor 2013','');
FILE_SCHEMA(('AUTOMOTIVE_DESIGN { 1 0 10303 214 1 1 1 1 }'));
ENDSEC;
DATA;
#5=APPLICATION_CONTEXT('automotive design');
#6=APPLICATION_PROTOCOL_DEFINITION('International Standard','automotive_design',2001,#5);
#7=PRODUCT_CONTEXT('',#5,'mechanical');
#8=PRODUCT('D110621','D110621',$,(#7));
#9=PRODUCT_RELATED_PRODUCT_CATEGORY('part',$,(#8));
#10=PRODUCT_DEFINITION_FORMATION('',$,#8);
#11=PRODUCT_DEFINITION_CONTEXT('part definition',#5,'design');
#12=PRODUCT_DEFINITION('',$,#10,#11);
#18=(NAMED_UNIT(*)PLANE_ANGLE_UNIT()SI_UNIT($,.RADIAN.));
#19=DIMENSIONAL_EXPONENTS(0.0,0.0,0.0,0.0,0.0,0.0,0.0);
#20=PLANE_ANGLE_MEASURE_WITH_UNIT(PLANE_ANGLE_MEASURE(0.0174532925),#18);
#24=(CONVERSION_BASED_UNIT('DEGREE',#20)NAMED_UNIT(#19)PLANE_ANGLE_UNIT());
#28=(NAMED_UNIT(*)SI_UNIT($,.STERADIAN.)SOLID_ANGLE_UNIT());
#32=(LENGTH_UNIT()NAMED_UNIT(*)SI_UNIT(.MILLI.,.METRE.));
#34=UNCERTAINTY_MEASURE_WITH_UNIT(LENGTH_MEASURE(0.01),#32,'DISTANCE_ACCURACY_VALUE','');
#36=(GEOMETRIC_REPRESENTATION_CONTEXT(3)GLOBAL_UNCERTAINTY_ASSIGNED_CONTEXT((#34))GLOBAL_UNIT_ASSIGNED_CONTEXT((#24,#28,#32))REPRESENTATION_CONTEXT('None','None'));
#37=AXIS2_PLACEMENT_3D('',#38,#39,#40);
#38=CARTESIAN_POINT('',(0.0,0.0,0.0));
#39=DIRECTION('',(0.0,0.0,1.0));
#40=DIRECTION('',(1.0,0.0,0.0));
#41=SHAPE_REPRESENTATION('',(#37),#36);
#42=PRODUCT_DEFINITION_SHAPE('','',#12);
#43=SHAPE_DEFINITION_REPRESENTATION(#42,#41);
#49=(NAMED_UNIT(*)PLANE_ANGLE_UNIT()SI_UNIT($,.RADIAN.));
#50=DIMENSIONAL_EXPONENTS(0.0,0.0,0.0,0.0,0.0,0.0,0.0);
#51=PLANE_ANGLE_MEASURE_WITH_UNIT(PLANE_ANGLE_MEASURE(0.0174532925),#49);
#55=(CONVERSION_BASED_UNIT('DEGREE',#51)NAMED_UNIT(#50)PLANE_ANGLE_UNIT());
#59=(NAMED_UNIT(*)SI_UNIT($,.STERADIAN.)SOLID_ANGLE_UNIT());
#63=(LENGTH_UNIT()NAMED_UNIT(*)SI_UNIT(.MILLI.,.METRE.));
#65=UNCERTAINTY_MEASURE_WITH_UNIT(LENGTH_MEASURE(0.000001),#63,'DISTANCE_ACCURACY_VALUE','');
#67=(GEOMETRIC_REPRESENTATION_CONTEXT(3)GLOBAL_UNCERTAINTY_ASSIGNED_CONTEXT((#65))GLOBAL_UNIT_ASSIGNED_CONTEXT((#55,#59,#63))REPRESENTATION_CONTEXT('','3D'));
#68=CARTESIAN_POINT('',(36.899999999999991,0.0,0.0));
#69=DIRECTION('',(-1.0,0.0,0.0));
#70=DIRECTION('',(0.0,-1.0,0.0));
#71=AXIS2_PLACEMENT_3D('',#68,#69,#70);
#72=CONICAL_SURFACE('',#71,14.900000000000002,45.000000000000313);
#73=CARTESIAN_POINT('',(36.799999999999997,15.000000000000002,1.836970E-015));
#74=VERTEX_POINT('',#73);
#75=CARTESIAN_POINT('',(36.799999999999997,0.0,0.0));
#76=DIRECTION('',(1.0,0.0,0.0));
#77=DIRECTION('',(0.0,-1.0,0.0));
#78=AXIS2_PLACEMENT_3D('',#75,#76,#77);
#79=CIRCLE('',#78,15.000000000000002);
#80=EDGE_CURVE('',#74,#74,#79,.T.);
#81=ORIENTED_EDGE('',*,*,#80,.T.);
#82=EDGE_LOOP('',(#81));
#83=FACE_OUTER_BOUND('',#82,.T.);
#84=CARTESIAN_POINT('',(37.0,14.800000000000001,-1.812477E-015));
#85=VERTEX_POINT('',#84);
#86=CARTESIAN_POINT('',(37.0,0.0,0.0));
#87=DIRECTION('',(-1.0,0.0,0.0));
#88=DIRECTION('',(0.0,-1.0,0.0));
#89=AXIS2_PLACEMENT_3D('',#86,#87,#88);
#90=CIRCLE('',#89,14.800000000000001);
#91=EDGE_CURVE('',#85,#85,#90,.T.);
#92=ORIENTED_EDGE('',*,*,#91,.T.);
#93=EDGE_LOOP('',(#92));
#94=FACE_BOUND('',#93,.T.);
#95=ADVANCED_FACE('',(#83,#94),#72,.T.);
#96=CARTESIAN_POINT('',(34.549999999999997,0.0,0.0));
#97=DIRECTION('',(1.0,0.0,0.0));
#98=DIRECTION('',(0.0,1.0,0.0));
#99=AXIS2_PLACEMENT_3D('',#96,#97,#98);
#100=CYLINDRICAL_SURFACE('',#99,15.000000000000002);
#101=CARTESIAN_POINT('',(32.300000000000011,15.000000000000002,-1.836970E-015));
#102=VERTEX_POINT('',#101);
#103=CARTESIAN_POINT('',(32.300000000000011,0.0,0.0));
#104=DIRECTION('',(-1.0,0.0,0.0));
#105=DIRECTION('',(0.0,-1.0,0.0));
#106=AXIS2_PLACEMENT_3D('',#103,#104,#105);
#107=CIRCLE('',#106,15.000000000000002);
#108=EDGE_CURVE('',#102,#102,#107,.T.);
#109=ORIENTED_EDGE('',*,*,#108,.F.);
#110=EDGE_LOOP('',(#109));
#111=FACE_OUTER_BOUND('',#110,.T.);
#112=ORIENTED_EDGE('',*,*,#80,.F.);
#113=EDGE_LOOP('',(#112));
#114=FACE_BOUND('',#113,.T.);
#115=ADVANCED_FACE('',(#111,#114),#100,.T.);
#116=CARTESIAN_POINT('',(37.0,10.762499999999996,0.0));
#117=DIRECTION('',(1.0,0.0,0.0));
#118=DIRECTION('',(0.0,0.0,-1.0));
#119=AXIS2_PLACEMENT_3D('',#116,#117,#118);
#120=PLANE('',#119);
#121=ORIENTED_EDGE('',*,*,#91,.F.);
#122=EDGE_LOOP('',(#121));
#123=FACE_OUTER_BOUND('',#122,.T.);
#124=CARTESIAN_POINT('',(37.0,9.025,0.0));
#125=VERTEX_POINT('',#124);
#126=CARTESIAN_POINT('',(37.0,0.0,0.0));
#127=DIRECTION('',(1.0,0.0,0.0));
#128=DIRECTION('',(0.0,-1.0,0.0));
#129=AXIS2_PLACEMENT_3D('',#126,#127,#128);
#130=CIRCLE('',#129,9.025);
#131=EDGE_CURVE('',#125,#125,#130,.T.);
#132=ORIENTED_EDGE('',*,*,#131,.F.);
#133=EDGE_LOOP('',(#132));
#134=FACE_BOUND('',#133,.T.);
#135=ADVANCED_FACE('',(#123,#134),#120,.T.);
#136=CARTESIAN_POINT('',(32.200000000000003,0.0,0.0));
#137=DIRECTION('',(1.0,0.0,0.0));
#138=DIRECTION('',(0.0,-1.0,0.0));
#139=AXIS2_PLACEMENT_3D('',#136,#137,#138);
#140=CONICAL_SURFACE('',#139,14.900000000000002,44.99999999999968);
#141=CARTESIAN_POINT('',(32.100000000000009,14.800000000000004,1.812477E-015));
#142=VERTEX_POINT('',#141);
#143=CARTESIAN_POINT('',(32.100000000000009,0.0,0.0));
#144=DIRECTION('',(1.0,0.0,0.0));
#145=DIRECTION('',(0.0,-1.0,0.0));
#146=AXIS2_PLACEMENT_3D('',#143,#144,#145);
#147=CIRCLE('',#146,14.800000000000004);
#148=EDGE_CURVE('',#142,#142,#147,.T.);
#149=ORIENTED_EDGE('',*,*,#148,.T.);
#150=EDGE_LOOP('',(#149));
#151=FACE_OUTER_BOUND('',#150,.T.);
#152=ORIENTED_EDGE('',*,*,#108,.T.);
#153=EDGE_LOOP('',(#152));
#154=FACE_BOUND('',#153,.T.);
#155=ADVANCED_FACE('',(#151,#154),#140,.T.);
#156=CARTESIAN_POINT('',(32.100000000000009,13.212500000000006,0.0));
#157=DIRECTION('',(-1.0,0.0,0.0));
#158=DIRECTION('',(0.0,0.0,1.0));
#159=AXIS2_PLACEMENT_3D('',#156,#157,#158);
#160=PLANE('',#159);
#161=ORIENTED_EDGE('',*,*,#148,.F.);
#162=EDGE_LOOP('',(#161));
#163=FACE_OUTER_BOUND('',#162,.T.);
#164=CARTESIAN_POINT('',(32.100000000000009,13.425000000000002,-3.288177E-015));
#165=VERTEX_POINT('',#164);
#166=CARTESIAN_POINT('',(32.100000000000009,0.0,0.0));
#167=DIRECTION('',(-1.0,0.0,0.0));
#168=DIRECTION('',(0.0,-1.0,0.0));
#169=AXIS2_PLACEMENT_3D('',#166,#167,#168);
#170=CIRCLE('',#169,13.425000000000002);
#171=EDGE_CURVE('',#165,#165,#170,.T.);
#172=ORIENTED_EDGE('',*,*,#171,.F.);
#173=EDGE_LOOP('',(#172));
#174=FACE_BOUND('',#173,.T.);
#175=ADVANCED_FACE('',(#163,#174),#160,.T.);
#176=CARTESIAN_POINT('',(39.5,0.0,0.0));
#177=DIRECTION('',(1.0,0.0,0.0));
#178=DIRECTION('',(0.0,0.0,-1.0));
#179=AXIS2_PLACEMENT_3D('',#176,#177,#178);
#180=TOROIDAL_SURFACE('',#179,9.025,2.5);
#181=ORIENTED_EDGE('',*,*,#131,.T.);
#182=EDGE_LOOP('',(#181));
#183=FACE_OUTER_BOUND('',#182,.T.);
#184=CARTESIAN_POINT('',(39.5,6.525,-1.598164E-015));
#185=VERTEX_POINT('',#184);
#186=CARTESIAN_POINT('',(39.5,0.0,0.0));
#187=DIRECTION('',(-1.0,0.0,0.0));
#188=DIRECTION('',(0.0,-1.0,0.0));
#189=AXIS2_PLACEMENT_3D('',#186,#187,#188);
#190=CIRCLE('',#189,6.525);
#191=EDGE_CURVE('',#185,#185,#190,.T.);
#192=ORIENTED_EDGE('',*,*,#191,.T.);
#193=EDGE_LOOP('',(#192));
#194=FACE_BOUND('',#193,.T.);
#195=ADVANCED_FACE('',(#183,#194),#180,.F.);
#196=CARTESIAN_POINT('',(45.0,0.0,0.0));
#197=DIRECTION('',(1.0,0.0,0.0));
#198=DIRECTION('',(0.0,1.0,0.0));
#199=AXIS2_PLACEMENT_3D('',#196,#197,#198);
#200=CYLINDRICAL_SURFACE('',#199,6.525);
#201=CARTESIAN_POINT('',(53.000000000000007,6.525000000000008,0.0));
#202=VERTEX_POINT('',#201);
#203=CARTESIAN_POINT('',(53.000000000000007,0.0,0.0));
#204=DIRECTION('',(1.0,0.0,0.0));
#205=DIRECTION('',(0.0,1.0,0.0));
#206=AXIS2_PLACEMENT_3D('',#203,#204,#205);
#207=CIRCLE('',#206,6.525000000000008);
#208=EDGE_CURVE('',#202,#202,#207,.T.);
#209=ORIENTED_EDGE('',*,*,#208,.F.);
#210=EDGE_LOOP('',(#209));
#211=FACE_OUTER_BOUND('',#210,.T.);
#212=ORIENTED_EDGE('',*,*,#191,.F.);
#213=EDGE_LOOP('',(#212));
#214=FACE_BOUND('',#213,.T.);
#215=ADVANCED_FACE('',(#211,#214),#200,.T.);
#216=CARTESIAN_POINT('',(30.100000000000009,0.0,0.0));
#217=DIRECTION('',(1.0,0.0,0.0));
#218=DIRECTION('',(0.0,0.0,-1.0));
#219=AXIS2_PLACEMENT_3D('',#216,#217,#218);
#220=TOROIDAL_SURFACE('',#219,13.425000000000002,2.0);
#221=CARTESIAN_POINT('',(30.100000000000009,11.425000000000002,0.0));
#222=VERTEX_POINT('',#221);
#223=CARTESIAN_POINT('',(30.100000000000009,0.0,0.0));
#224=DIRECTION('',(1.0,0.0,0.0));
#225=DIRECTION('',(0.0,-1.0,0.0));
#226=AXIS2_PLACEMENT_3D('',#223,#224,#225);
#227=CIRCLE('',#226,11.425000000000002);
#228=EDGE_CURVE('',#222,#222,#227,.T.);
#229=ORIENTED_EDGE('',*,*,#228,.T.);
#230=EDGE_LOOP('',(#229));
#231=FACE_OUTER_BOUND('',#230,.T.);
#232=ORIENTED_EDGE('',*,*,#171,.T.);
#233=EDGE_LOOP('',(#232));
#234=FACE_BOUND('',#233,.T.);
#235=ADVANCED_FACE('',(#231,#234),#220,.F.);
#236=CARTESIAN_POINT('',(23.362500000000001,0.0,0.0));
#237=DIRECTION('',(1.0,0.0,0.0));
#238=DIRECTION('',(0.0,1.0,0.0));
#239=AXIS2_PLACEMENT_3D('',#236,#237,#238);
#240=CYLINDRICAL_SURFACE('',#239,11.425000000000002);
#241=CARTESIAN_POINT('',(14.625,11.425000000000001,0.0));
#242=VERTEX_POINT('',#241);
#243=CARTESIAN_POINT('',(14.625,0.0,0.0));
#244=DIRECTION('',(1.0,0.0,0.0));
#245=DIRECTION('',(0.0,1.0,0.0));
#246=AXIS2_PLACEMENT_3D('',#243,#244,#245);
#247=CIRCLE('',#246,11.425000000000001);
#248=EDGE_CURVE('',#242,#242,#247,.T.);
#249=ORIENTED_EDGE('',*,*,#248,.T.);
#250=EDGE_LOOP('',(#249));
#251=FACE_OUTER_BOUND('',#250,.T.);
#252=ORIENTED_EDGE('',*,*,#228,.F.);
#253=EDGE_LOOP('',(#252));
#254=FACE_BOUND('',#253,.T.);
#255=ADVANCED_FACE('',(#251,#254),#240,.T.);
#256=CARTESIAN_POINT('',(64.599999999999994,0.0,0.0));
#257=DIRECTION('',(1.0,0.0,0.0));
#258=DIRECTION('',(0.0,0.0,-1.0));
#259=AXIS2_PLACEMENT_3D('',#256,#257,#258);
#260=TOROIDAL_SURFACE('',#259,5.985461406032549,0.4);
#261=CARTESIAN_POINT('',(64.648747737362058,6.382479866689077,0.0));
#262=VERTEX_POINT('',#261);
#263=CARTESIAN_POINT('',(64.648747737362058,0.0,-7.816284E-016));
#264=DIRECTION('',(1.0,0.0,0.0));
#265=DIRECTION('',(0.0,-1.0,0.0));
#266=AXIS2_PLACEMENT_3D('',#263,#264,#265);
#267=CIRCLE('',#266,6.382479866689077);
#268=EDGE_CURVE('',#262,#262,#267,.T.);
#269=ORIENTED_EDGE('',*,*,#268,.T.);
#270=EDGE_LOOP('',(#269));
#271=FACE_OUTER_BOUND('',#270,.T.);
#272=CARTESIAN_POINT('',(65.0,5.985461406032549,-1.466015E-015));
#273=VERTEX_POINT('',#272);
#274=CARTESIAN_POINT('',(65.0,0.0,0.0));
#275=DIRECTION('',(-1.0,0.0,0.0));
#276=DIRECTION('',(0.0,-1.0,0.0));
#277=AXIS2_PLACEMENT_3D('',#274,#275,#276);
#278=CIRCLE('',#277,5.985461406032549);
#279=EDGE_CURVE('',#273,#273,#278,.T.);
#280=ORIENTED_EDGE('',*,*,#279,.T.);
#281=EDGE_LOOP('',(#280));
#282=FACE_BOUND('',#281,.T.);
#283=ADVANCED_FACE('',(#271,#282),#260,.T.);
#284=CARTESIAN_POINT('',(62.112186934340521,0.0,0.0));
#285=DIRECTION('',(-1.0,0.0,0.0));
#286=DIRECTION('',(0.0,1.0,0.0));
#287=AXIS2_PLACEMENT_3D('',#284,#285,#286);
#288=CONICAL_SURFACE('',#287,6.693930371091597,7.000000000000013);
#289=CARTESIAN_POINT('',(59.224373868681035,7.048509230328267,0.0));
#290=VERTEX_POINT('',#289);
#291=CARTESIAN_POINT('',(59.224373868681035,0.0,0.0));
#292=DIRECTION('',(1.0,0.0,0.0));
#293=DIRECTION('',(0.0,1.0,0.0));
#294=AXIS2_PLACEMENT_3D('',#291,#292,#293);
#295=CIRCLE('',#294,7.048509230328267);
#296=EDGE_CURVE('',#290,#290,#295,.T.);
#297=ORIENTED_EDGE('',*,*,#296,.T.);
#298=EDGE_LOOP('',(#297));
#299=FACE_OUTER_BOUND('',#298,.T.);
#300=ORIENTED_EDGE('',*,*,#268,.F.);
#301=EDGE_LOOP('',(#300));
#302=FACE_BOUND('',#301,.T.);
#303=ADVANCED_FACE('',(#299,#302),#288,.T.);
#304=CARTESIAN_POINT('',(65.0,5.919675755927467,0.0));
#305=DIRECTION('',(1.0,0.0,0.0));
#306=DIRECTION('',(0.0,0.0,-1.0));
#307=AXIS2_PLACEMENT_3D('',#304,#305,#306);
#308=PLANE('',#307);
#309=ORIENTED_EDGE('',*,*,#279,.F.);
#310=EDGE_LOOP('',(#309));
#311=FACE_OUTER_BOUND('',#310,.T.);
#312=CARTESIAN_POINT('',(65.0,5.500000000000009,0.0));
#313=VERTEX_POINT('',#312);
#314=CARTESIAN_POINT('',(65.0,0.0,0.0));
#315=DIRECTION('',(1.0,0.0,0.0));
#316=DIRECTION('',(0.0,1.0,0.0));
#317=AXIS2_PLACEMENT_3D('',#314,#315,#316);
#318=CIRCLE('',#317,5.500000000000009);
#319=EDGE_CURVE('',#313,#313,#318,.T.);
#320=ORIENTED_EDGE('',*,*,#319,.F.);
#321=EDGE_LOOP('',(#320));
#322=FACE_BOUND('',#321,.T.);
#323=ADVANCED_FACE('',(#311,#322),#308,.T.);
#324=CARTESIAN_POINT('',(2.199999999999999,0.0,0.0));
#325=DIRECTION('',(1.0,0.0,0.0));
#326=DIRECTION('',(0.0,0.0,-1.0));
#327=AXIS2_PLACEMENT_3D('',#324,#325,#326);
#328=TOROIDAL_SURFACE('',#327,7.950000000000004,2.2);
#329=CARTESIAN_POINT('',(-8.326673E-016,7.950000000000004,0.0));
#330=VERTEX_POINT('',#329);
#331=CARTESIAN_POINT('',(-8.326673E-016,0.0,0.0));
#332=DIRECTION('',(1.0,0.0,0.0));
#333=DIRECTION('',(0.0,-1.0,0.0));
#334=AXIS2_PLACEMENT_3D('',#331,#332,#333);
#335=CIRCLE('',#334,7.950000000000004);
#336=EDGE_CURVE('',#330,#330,#335,.T.);
#337=ORIENTED_EDGE('',*,*,#336,.T.);
#338=EDGE_LOOP('',(#337));
#339=FACE_OUTER_BOUND('',#338,.T.);
#340=CARTESIAN_POINT('',(2.199999999999999,10.150000000000004,-2.486033E-015));
#341=VERTEX_POINT('',#340);
#342=CARTESIAN_POINT('',(2.199999999999999,0.0,0.0));
#343=DIRECTION('',(-1.0,0.0,0.0));
#344=DIRECTION('',(0.0,-1.0,0.0));
#345=AXIS2_PLACEMENT_3D('',#342,#343,#344);
#346=CIRCLE('',#345,10.150000000000004);
#347=EDGE_CURVE('',#341,#341,#346,.T.);
#348=ORIENTED_EDGE('',*,*,#347,.T.);
#349=EDGE_LOOP('',(#348));
#350=FACE_BOUND('',#349,.T.);
#351=ADVANCED_FACE('',(#339,#350),#328,.T.);
#352=CARTESIAN_POINT('',(3.624999999999998,0.0,0.0));
#353=DIRECTION('',(1.0,0.0,0.0));
#354=DIRECTION('',(0.0,1.0,0.0));
#355=AXIS2_PLACEMENT_3D('',#352,#353,#354);
#356=CYLINDRICAL_SURFACE('',#355,10.150000000000004);
#357=CARTESIAN_POINT('',(7.249999999999998,10.150000000000006,0.0));
#358=VERTEX_POINT('',#357);
#359=CARTESIAN_POINT('',(7.249999999999998,0.0,0.0));
#360=DIRECTION('',(1.0,0.0,0.0));
#361=DIRECTION('',(0.0,1.0,0.0));
#362=AXIS2_PLACEMENT_3D('',#359,#360,#361);
#363=CIRCLE('',#362,10.150000000000006);
#364=EDGE_CURVE('',#358,#358,#363,.T.);
#365=ORIENTED_EDGE('',*,*,#364,.F.);
#366=EDGE_LOOP('',(#365));
#367=FACE_OUTER_BOUND('',#366,.T.);
#368=ORIENTED_EDGE('',*,*,#347,.F.);
#369=EDGE_LOOP('',(#368));
#370=FACE_BOUND('',#369,.T.);
#371=ADVANCED_FACE('',(#367,#370),#356,.T.);
#372=CARTESIAN_POINT('',(-9.322624E-016,8.824999999999994,0.0));
#373=DIRECTION('',(-1.0,0.0,0.0));
#374=DIRECTION('',(0.0,0.0,1.0));
#375=AXIS2_PLACEMENT_3D('',#372,#373,#374);
#376=PLANE('',#375);
#377=ORIENTED_EDGE('',*,*,#336,.F.);
#378=EDGE_LOOP('',(#377));
#379=FACE_OUTER_BOUND('',#378,.T.);
#380=CARTESIAN_POINT('',(0.0,7.499999999999987,0.0));
#381=VERTEX_POINT('',#380);
#382=CARTESIAN_POINT('',(0.0,0.0,0.0));
#383=DIRECTION('',(1.0,0.0,0.0));
#384=DIRECTION('',(0.0,1.0,0.0));
#385=AXIS2_PLACEMENT_3D('',#382,#383,#384);
#386=CIRCLE('',#385,7.499999999999987);
#387=EDGE_CURVE('',#381,#381,#386,.T.);
#388=ORIENTED_EDGE('',*,*,#387,.T.);
#389=EDGE_LOOP('',(#388));
#390=FACE_BOUND('',#389,.T.);
#391=ADVANCED_FACE('',(#379,#390),#376,.T.);
#392=CARTESIAN_POINT('',(7.824999999999997,0.0,0.0));
#393=DIRECTION('',(1.0,0.0,0.0));
#394=DIRECTION('',(0.0,1.0,0.0));
#395=AXIS2_PLACEMENT_3D('',#392,#393,#394);
#396=CONICAL_SURFACE('',#395,10.725000000000001,45.000000000000007);
#397=CARTESIAN_POINT('',(8.399999999999995,11.300000000000001,0.0));
#398=VERTEX_POINT('',#397);
#399=CARTESIAN_POINT('',(8.399999999999995,0.0,0.0));
#400=DIRECTION('',(1.0,0.0,0.0));
#401=DIRECTION('',(0.0,1.0,0.0));
#402=AXIS2_PLACEMENT_3D('',#399,#400,#401);
#403=CIRCLE('',#402,11.300000000000001);
#404=EDGE_CURVE('',#398,#398,#403,.T.);
#405=ORIENTED_EDGE('',*,*,#404,.F.);
#406=EDGE_LOOP('',(#405));
#407=FACE_OUTER_BOUND('',#406,.T.);
#408=ORIENTED_EDGE('',*,*,#364,.T.);
#409=EDGE_LOOP('',(#408));
#410=FACE_BOUND('',#409,.T.);
#411=ADVANCED_FACE('',(#407,#410),#396,.T.);
#412=CARTESIAN_POINT('',(9.149999999999995,0.0,0.0));
#413=DIRECTION('',(1.0,0.0,0.0));
#414=DIRECTION('',(0.0,1.0,0.0));
#415=AXIS2_PLACEMENT_3D('',#412,#413,#414);
#416=CYLINDRICAL_SURFACE('',#415,11.300000000000004);
#417=CARTESIAN_POINT('',(9.899999999999999,11.300000000000004,0.0));
#418=VERTEX_POINT('',#417);
#419=CARTESIAN_POINT('',(9.899999999999999,0.0,0.0));
#420=DIRECTION('',(1.0,0.0,0.0));
#421=DIRECTION('',(0.0,1.0,0.0));
#422=AXIS2_PLACEMENT_3D('',#419,#420,#421);
#423=CIRCLE('',#422,11.300000000000004);
#424=EDGE_CURVE('',#418,#418,#423,.T.);
#425=ORIENTED_EDGE('',*,*,#424,.F.);
#426=EDGE_LOOP('',(#425));
#427=FACE_OUTER_BOUND('',#426,.T.);
#428=ORIENTED_EDGE('',*,*,#404,.T.);
#429=EDGE_LOOP('',(#428));
#430=FACE_BOUND('',#429,.T.);
#431=ADVANCED_FACE('',(#427,#430),#416,.T.);
#432=CARTESIAN_POINT('',(10.474999999999998,0.0,0.0));
#433=DIRECTION('',(-1.0,0.0,0.0));
#434=DIRECTION('',(0.0,1.0,0.0));
#435=AXIS2_PLACEMENT_3D('',#432,#433,#434);
#436=CONICAL_SURFACE('',#435,10.725000000000001,45.000000000000028);
#437=CARTESIAN_POINT('',(11.050000000000001,10.150000000000002,0.0));
#438=VERTEX_POINT('',#437);
#439=CARTESIAN_POINT('',(11.050000000000001,0.0,0.0));
#440=DIRECTION('',(1.0,0.0,0.0));
#441=DIRECTION('',(0.0,1.0,0.0));
#442=AXIS2_PLACEMENT_3D('',#439,#440,#441);
#443=CIRCLE('',#442,10.150000000000002);
#444=EDGE_CURVE('',#438,#438,#443,.T.);
#445=ORIENTED_EDGE('',*,*,#444,.F.);
#446=EDGE_LOOP('',(#445));
#447=FACE_OUTER_BOUND('',#446,.T.);
#448=ORIENTED_EDGE('',*,*,#424,.T.);
#449=EDGE_LOOP('',(#448));
#450=FACE_BOUND('',#449,.T.);
#451=ADVANCED_FACE('',(#447,#450),#436,.T.);
#452=CARTESIAN_POINT('',(12.199999999999999,0.0,0.0));
#453=DIRECTION('',(1.0,0.0,0.0));
#454=DIRECTION('',(0.0,1.0,0.0));
#455=AXIS2_PLACEMENT_3D('',#452,#453,#454);
#456=CYLINDRICAL_SURFACE('',#455,10.150000000000002);
#457=CARTESIAN_POINT('',(13.35,10.150000000000002,0.0));
#458=VERTEX_POINT('',#457);
#459=CARTESIAN_POINT('',(13.35,0.0,0.0));
#460=DIRECTION('',(1.0,0.0,0.0));
#461=DIRECTION('',(0.0,1.0,0.0));
#462=AXIS2_PLACEMENT_3D('',#459,#460,#461);
#463=CIRCLE('',#462,10.150000000000002);
#464=EDGE_CURVE('',#458,#458,#463,.T.);
#465=ORIENTED_EDGE('',*,*,#464,.F.);
#466=EDGE_LOOP('',(#465));
#467=FACE_OUTER_BOUND('',#466,.T.);
#468=ORIENTED_EDGE('',*,*,#444,.T.);
#469=EDGE_LOOP('',(#468));
#470=FACE_BOUND('',#469,.T.);
#471=ADVANCED_FACE('',(#467,#470),#456,.T.);
#472=CARTESIAN_POINT('',(13.987499999999999,0.0,0.0));
#473=DIRECTION('',(1.0,0.0,0.0));
#474=DIRECTION('',(0.0,1.0,0.0));
#475=AXIS2_PLACEMENT_3D('',#472,#473,#474);
#476=CONICAL_SURFACE('',#475,10.787500000000001,45.000000000000007);
#477=ORIENTED_EDGE('',*,*,#248,.F.);
#478=EDGE_LOOP('',(#477));
#479=FACE_OUTER_BOUND('',#478,.T.);
#480=ORIENTED_EDGE('',*,*,#464,.T.);
#481=EDGE_LOOP('',(#480));
#482=FACE_BOUND('',#481,.T.);
#483=ADVANCED_FACE('',(#479,#482),#476,.T.);
#484=CARTESIAN_POINT('',(53.000000000000007,6.687500000000003,0.0));
#485=DIRECTION('',(-1.0,0.0,0.0));
#486=DIRECTION('',(0.0,0.0,1.0));
#487=AXIS2_PLACEMENT_3D('',#484,#485,#486);
#488=PLANE('',#487);
#489=CARTESIAN_POINT('',(53.0,6.849999999999997,0.0));
#490=VERTEX_POINT('',#489);
#491=CARTESIAN_POINT('',(53.0,0.0,0.0));
#492=DIRECTION('',(1.0,0.0,0.0));
#493=DIRECTION('',(0.0,1.0,0.0));
#494=AXIS2_PLACEMENT_3D('',#491,#492,#493);
#495=CIRCLE('',#494,6.849999999999997);
#496=EDGE_CURVE('',#490,#490,#495,.T.);
#497=ORIENTED_EDGE('',*,*,#496,.F.);
#498=EDGE_LOOP('',(#497));
#499=FACE_OUTER_BOUND('',#498,.T.);
#500=ORIENTED_EDGE('',*,*,#208,.T.);
#501=EDGE_LOOP('',(#500));
#502=FACE_BOUND('',#501,.T.);
#503=ADVANCED_FACE('',(#499,#502),#488,.T.);
#504=CARTESIAN_POINT('',(53.200000000000003,0.0,0.0));
#505=DIRECTION('',(1.0,0.0,0.0));
#506=DIRECTION('',(0.0,0.0,-1.0));
#507=AXIS2_PLACEMENT_3D('',#504,#505,#506);
#508=TOROIDAL_SURFACE('',#507,6.850000000000001,0.200000000000003);
#509=CARTESIAN_POINT('',(53.224373868681027,7.04850923032827,0.0));
#510=VERTEX_POINT('',#509);
#511=CARTESIAN_POINT('',(53.224373868681027,0.0,0.0));
#512=DIRECTION('',(1.0,0.0,0.0));
#513=DIRECTION('',(0.0,1.0,0.0));
#514=AXIS2_PLACEMENT_3D('',#511,#512,#513);
#515=CIRCLE('',#514,7.04850923032827);
#516=EDGE_CURVE('',#510,#510,#515,.T.);
#517=ORIENTED_EDGE('',*,*,#516,.F.);
#518=EDGE_LOOP('',(#517));
#519=FACE_OUTER_BOUND('',#518,.T.);
#520=ORIENTED_EDGE('',*,*,#496,.T.);
#521=EDGE_LOOP('',(#520));
#522=FACE_BOUND('',#521,.T.);
#523=ADVANCED_FACE('',(#519,#522),#508,.T.);
#524=CARTESIAN_POINT('',(56.112186934340514,0.0,0.0));
#525=DIRECTION('',(-1.0,0.0,0.0));
#526=DIRECTION('',(0.0,1.0,0.0));
#527=AXIS2_PLACEMENT_3D('',#524,#525,#526);
#528=CONICAL_SURFACE('',#527,6.693930371091597,7.000000000000035);
#529=CARTESIAN_POINT('',(59.0,6.339351511854924,0.0));
#530=VERTEX_POINT('',#529);
#531=CARTESIAN_POINT('',(59.0,0.0,0.0));
#532=DIRECTION('',(1.0,0.0,0.0));
#533=DIRECTION('',(0.0,1.0,0.0));
#534=AXIS2_PLACEMENT_3D('',#531,#532,#533);
#535=CIRCLE('',#534,6.339351511854924);
#536=EDGE_CURVE('',#530,#530,#535,.T.);
#537=ORIENTED_EDGE('',*,*,#536,.F.);
#538=EDGE_LOOP('',(#537));
#539=FACE_OUTER_BOUND('',#538,.T.);
#540=ORIENTED_EDGE('',*,*,#516,.T.);
#541=EDGE_LOOP('',(#540));
#542=FACE_BOUND('',#541,.T.);
#543=ADVANCED_FACE('',(#539,#542),#528,.T.);
#544=CARTESIAN_POINT('',(59.0,6.594675755927462,0.0));
#545=DIRECTION('',(-1.0,0.0,0.0));
#546=DIRECTION('',(0.0,0.0,1.0));
#547=AXIS2_PLACEMENT_3D('',#544,#545,#546);
#548=PLANE('',#547);
#549=CARTESIAN_POINT('',(59.000000000000014,6.850000000000001,0.0));
#550=VERTEX_POINT('',#549);
#551=CARTESIAN_POINT('',(59.000000000000014,0.0,0.0));
#552=DIRECTION('',(1.0,0.0,0.0));
#553=DIRECTION('',(0.0,1.0,0.0));
#554=AXIS2_PLACEMENT_3D('',#551,#552,#553);
#555=CIRCLE('',#554,6.850000000000001);
#556=EDGE_CURVE('',#550,#550,#555,.T.);
#557=ORIENTED_EDGE('',*,*,#556,.F.);
#558=EDGE_LOOP('',(#557));
#559=FACE_OUTER_BOUND('',#558,.T.);
#560=ORIENTED_EDGE('',*,*,#536,.T.);
#561=EDGE_LOOP('',(#560));
#562=FACE_BOUND('',#561,.T.);
#563=ADVANCED_FACE('',(#559,#562),#548,.T.);
#564=CARTESIAN_POINT('',(59.200000000000003,0.0,0.0));
#565=DIRECTION('',(1.0,0.0,0.0));
#566=DIRECTION('',(0.0,0.0,-1.0));
#567=AXIS2_PLACEMENT_3D('',#564,#565,#566);
#568=TOROIDAL_SURFACE('',#567,6.850000000000001,0.199999999999998);
#569=ORIENTED_EDGE('',*,*,#296,.F.);
#570=EDGE_LOOP('',(#569));
#571=FACE_OUTER_BOUND('',#570,.T.);
#572=ORIENTED_EDGE('',*,*,#556,.T.);
#573=EDGE_LOOP('',(#572));
#574=FACE_BOUND('',#573,.T.);
#575=ADVANCED_FACE('',(#571,#574),#568,.T.);
#576=CARTESIAN_POINT('',(50.000000000000007,0.0,0.0));
#577=DIRECTION('',(1.0,0.0,0.0));
#578=DIRECTION('',(0.0,1.0,0.0));
#579=AXIS2_PLACEMENT_3D('',#576,#577,#578);
#580=CYLINDRICAL_SURFACE('',#579,5.499999999999996);
#581=CARTESIAN_POINT('',(35.000000000000021,5.499999999999982,0.0));
#582=VERTEX_POINT('',#581);
#583=CARTESIAN_POINT('',(35.000000000000021,0.0,0.0));
#584=DIRECTION('',(1.0,0.0,0.0));
#585=DIRECTION('',(0.0,1.0,0.0));
#586=AXIS2_PLACEMENT_3D('',#583,#584,#585);
#587=CIRCLE('',#586,5.499999999999982);
#588=EDGE_CURVE('',#582,#582,#587,.T.);
#589=ORIENTED_EDGE('',*,*,#588,.F.);
#590=EDGE_LOOP('',(#589));
#591=FACE_OUTER_BOUND('',#590,.T.);
#592=ORIENTED_EDGE('',*,*,#319,.T.);
#593=EDGE_LOOP('',(#592));
#594=FACE_BOUND('',#593,.T.);
#595=ADVANCED_FACE('',(#591,#594),#580,.F.);
#596=CARTESIAN_POINT('',(34.000000000000014,0.0,0.0));
#597=DIRECTION('',(-1.0,0.0,0.0));
#598=DIRECTION('',(0.0,1.0,0.0));
#599=AXIS2_PLACEMENT_3D('',#596,#597,#598);
#600=CONICAL_SURFACE('',#599,6.499999999999993,45.000000000000007);
#601=CARTESIAN_POINT('',(33.0,7.500000000000002,0.0));
#602=VERTEX_POINT('',#601);
#603=CARTESIAN_POINT('',(33.0,0.0,0.0));
#604=DIRECTION('',(1.0,0.0,0.0));
#605=DIRECTION('',(0.0,1.0,0.0));
#606=AXIS2_PLACEMENT_3D('',#603,#604,#605);
#607=CIRCLE('',#606,7.500000000000002);
#608=EDGE_CURVE('',#602,#602,#607,.T.);
#609=ORIENTED_EDGE('',*,*,#608,.F.);
#610=EDGE_LOOP('',(#609));
#611=FACE_OUTER_BOUND('',#610,.T.);
#612=ORIENTED_EDGE('',*,*,#588,.T.);
#613=EDGE_LOOP('',(#612));
#614=FACE_BOUND('',#613,.T.);
#615=ADVANCED_FACE('',(#611,#614),#600,.F.);
#616=CARTESIAN_POINT('',(16.5,0.0,0.0));
#617=DIRECTION('',(1.0,0.0,0.0));
#618=DIRECTION('',(0.0,1.0,0.0));
#619=AXIS2_PLACEMENT_3D('',#616,#617,#618);
#620=CYLINDRICAL_SURFACE('',#619,7.499999999999995);
#621=ORIENTED_EDGE('',*,*,#387,.F.);
#622=EDGE_LOOP('',(#621));
#623=FACE_OUTER_BOUND('',#622,.T.);
#624=ORIENTED_EDGE('',*,*,#608,.T.);
#625=EDGE_LOOP('',(#624));
#626=FACE_BOUND('',#625,.T.);
#627=ADVANCED_FACE('',(#623,#626),#620,.F.);
#628=CLOSED_SHELL('',(#95,#115,#135,#155,#175,#195,#215,#235,#255,#283,#303,#323,#351,#371,#391,#411,#431,#451,#471,#483,#503,#523,#543,#563,#575,#595,#615,#627));
#629=MANIFOLD_SOLID_BREP('Solid1',#628);
#630=COLOUR_RGB('Metal-Brass',0.780391991138458,0.568626999855042,0.113724999129772);
#631=FILL_AREA_STYLE_COLOUR('Metal-Brass',#630);
#632=FILL_AREA_STYLE('Metal-Brass',(#631));
#633=SURFACE_STYLE_FILL_AREA(#632);
#634=SURFACE_SIDE_STYLE('Metal-Brass',(#633));
#635=SURFACE_STYLE_USAGE(.BOTH.,#634);
#636=PRESENTATION_STYLE_ASSIGNMENT((#635));
#637=STYLED_ITEM('',(#636),#629);
#638=MECHANICAL_DESIGN_GEOMETRIC_PRESENTATION_REPRESENTATION('',(#637),#36);
#639=ADVANCED_BREP_SHAPE_REPRESENTATION('ABSR',(#629),#36);
#640=SHAPE_REPRESENTATION_RELATIONSHIP('SRR','None',#639,#41);
ENDSEC;
END-ISO-10303-21;
