ISO-10303-21;
HEADER;
/****************************************************************
 * Generated by software with PDElib inside                    *
 * PDElib Version v51a, created Wed 11/30/2011                  *
 * ITI Transcendata (http://www.transcendata.com/)              *
 ****************************************************************/
FILE_DESCRIPTION((''),'2;1');
FILE_NAME('J:\\3D Zeichnungen_step\\Serie 33\\33sftf06sxn.stp','2013-07-24T17:00:23',('AS035480'),(''),'Autodesk Inventor 2013','Autodesk Inventor 2013','');
FILE_SCHEMA(('AUTOMOTIVE_DESIGN { 1 0 10303 214 1 1 1 1 }'));
ENDSEC;
DATA;
#5=APPLICATION_CONTEXT('automotive design');
#6=APPLICATION_PROTOCOL_DEFINITION('International Standard','automotive_design',2001,#5);
#7=PRODUCT_CONTEXT('',#5,'mechanical');
#8=PRODUCT('D107392','D107392',$,(#7));
#9=PRODUCT_RELATED_PRODUCT_CATEGORY('part',$,(#8));
#10=PRODUCT_DEFINITION_FORMATION('',$,#8);
#11=PRODUCT_DEFINITION_CONTEXT('part definition',#5,'design');
#12=PRODUCT_DEFINITION('',$,#10,#11);
#18=(NAMED_UNIT(*)PLANE_ANGLE_UNIT()SI_UNIT($,.RADIAN.));
#19=DIMENSIONAL_EXPONENTS(0.0,0.0,0.0,0.0,0.0,0.0,0.0);
#20=PLANE_ANGLE_MEASURE_WITH_UNIT(PLANE_ANGLE_MEASURE(0.0174532925),#18);
#24=(CONVERSION_BASED_UNIT('DEGREE',#20)NAMED_UNIT(#19)PLANE_ANGLE_UNIT());
#28=(NAMED_UNIT(*)SI_UNIT($,.STERADIAN.)SOLID_ANGLE_UNIT());
#32=(LENGTH_UNIT()NAMED_UNIT(*)SI_UNIT(.MILLI.,.METRE.));
#34=UNCERTAINTY_MEASURE_WITH_UNIT(LENGTH_MEASURE(0.01),#32,'DISTANCE_ACCURACY_VALUE','');
#36=(GEOMETRIC_REPRESENTATION_CONTEXT(3)GLOBAL_UNCERTAINTY_ASSIGNED_CONTEXT((#34))GLOBAL_UNIT_ASSIGNED_CONTEXT((#24,#28,#32))REPRESENTATION_CONTEXT('None','None'));
#37=AXIS2_PLACEMENT_3D('',#38,#39,#40);
#38=CARTESIAN_POINT('',(0.0,0.0,0.0));
#39=DIRECTION('',(0.0,0.0,1.0));
#40=DIRECTION('',(1.0,0.0,0.0));
#41=SHAPE_REPRESENTATION('',(#37),#36);
#42=PRODUCT_DEFINITION_SHAPE('','',#12);
#43=SHAPE_DEFINITION_REPRESENTATION(#42,#41);
#49=(NAMED_UNIT(*)PLANE_ANGLE_UNIT()SI_UNIT($,.RADIAN.));
#50=DIMENSIONAL_EXPONENTS(0.0,0.0,0.0,0.0,0.0,0.0,0.0);
#51=PLANE_ANGLE_MEASURE_WITH_UNIT(PLANE_ANGLE_MEASURE(0.0174532925),#49);
#55=(CONVERSION_BASED_UNIT('DEGREE',#51)NAMED_UNIT(#50)PLANE_ANGLE_UNIT());
#59=(NAMED_UNIT(*)SI_UNIT($,.STERADIAN.)SOLID_ANGLE_UNIT());
#63=(LENGTH_UNIT()NAMED_UNIT(*)SI_UNIT(.MILLI.,.METRE.));
#65=UNCERTAINTY_MEASURE_WITH_UNIT(LENGTH_MEASURE(0.000001),#63,'DISTANCE_ACCURACY_VALUE','');
#67=(GEOMETRIC_REPRESENTATION_CONTEXT(3)GLOBAL_UNCERTAINTY_ASSIGNED_CONTEXT((#65))GLOBAL_UNIT_ASSIGNED_CONTEXT((#55,#59,#63))REPRESENTATION_CONTEXT('','3D'));
#68=CARTESIAN_POINT('',(45.199038105676657,0.0,0.0));
#69=DIRECTION('',(-1.0,0.0,0.0));
#70=DIRECTION('',(0.0,-1.0,0.0));
#71=AXIS2_PLACEMENT_3D('',#68,#69,#70);
#72=CONICAL_SURFACE('',#71,5.700000000000001,74.999999999999886);
#73=CARTESIAN_POINT('',(44.998076211353315,-6.45,0.0));
#74=VERTEX_POINT('',#73);
#75=CARTESIAN_POINT('',(44.998076211353315,0.0,0.0));
#76=DIRECTION('',(-1.0,0.0,0.0));
#77=DIRECTION('',(0.0,-1.0,0.0));
#78=AXIS2_PLACEMENT_3D('',#75,#76,#77);
#79=CIRCLE('',#78,6.45);
#80=EDGE_CURVE('',#74,#74,#79,.T.);
#81=ORIENTED_EDGE('',*,*,#80,.F.);
#82=EDGE_LOOP('',(#81));
#83=FACE_OUTER_BOUND('',#82,.T.);
#84=CARTESIAN_POINT('',(45.399999999999999,-4.950000000000001,0.0));
#85=VERTEX_POINT('',#84);
#86=CARTESIAN_POINT('',(45.399999999999999,0.0,0.0));
#87=DIRECTION('',(-1.0,0.0,0.0));
#88=DIRECTION('',(0.0,-1.0,0.0));
#89=AXIS2_PLACEMENT_3D('',#86,#87,#88);
#90=CIRCLE('',#89,4.950000000000001);
#91=EDGE_CURVE('',#85,#85,#90,.T.);
#92=ORIENTED_EDGE('',*,*,#91,.T.);
#93=EDGE_LOOP('',(#92));
#94=FACE_BOUND('',#93,.T.);
#95=ADVANCED_FACE('',(#83,#94),#72,.T.);
#96=CARTESIAN_POINT('',(44.299038105676658,0.0,0.0));
#97=DIRECTION('',(-1.0,0.0,0.0));
#98=DIRECTION('',(0.0,-1.0,0.0));
#99=AXIS2_PLACEMENT_3D('',#96,#97,#98);
#100=CYLINDRICAL_SURFACE('',#99,6.45);
#101=CARTESIAN_POINT('',(43.600000000000001,-6.45,0.0));
#102=VERTEX_POINT('',#101);
#103=CARTESIAN_POINT('',(43.600000000000001,0.0,0.0));
#104=DIRECTION('',(-1.0,0.0,0.0));
#105=DIRECTION('',(0.0,-1.0,0.0));
#106=AXIS2_PLACEMENT_3D('',#103,#104,#105);
#107=CIRCLE('',#106,6.45);
#108=EDGE_CURVE('',#102,#102,#107,.T.);
#109=ORIENTED_EDGE('',*,*,#108,.F.);
#110=EDGE_LOOP('',(#109));
#111=FACE_OUTER_BOUND('',#110,.T.);
#112=ORIENTED_EDGE('',*,*,#80,.T.);
#113=EDGE_LOOP('',(#112));
#114=FACE_BOUND('',#113,.T.);
#115=ADVANCED_FACE('',(#111,#114),#100,.T.);
#116=CARTESIAN_POINT('',(41.93191726823877,0.0,0.0));
#117=DIRECTION('',(-1.0,0.0,0.0));
#118=DIRECTION('',(0.0,0.0,1.0));
#119=AXIS2_PLACEMENT_3D('',#116,#117,#118);
#120=TOROIDAL_SURFACE('',#119,7.250000000000001,1.849999999999985);
#121=CARTESIAN_POINT('',(40.263834536477546,-6.449999999999987,0.0));
#122=VERTEX_POINT('',#121);
#123=CARTESIAN_POINT('',(40.263834536477546,0.0,0.0));
#124=DIRECTION('',(-1.0,0.0,0.0));
#125=DIRECTION('',(0.0,-1.0,0.0));
#126=AXIS2_PLACEMENT_3D('',#123,#124,#125);
#127=CIRCLE('',#126,6.449999999999987);
#128=EDGE_CURVE('',#122,#122,#127,.T.);
#129=ORIENTED_EDGE('',*,*,#128,.F.);
#130=EDGE_LOOP('',(#129));
#131=FACE_OUTER_BOUND('',#130,.T.);
#132=ORIENTED_EDGE('',*,*,#108,.T.);
#133=EDGE_LOOP('',(#132));
#134=FACE_BOUND('',#133,.T.);
#135=ADVANCED_FACE('',(#131,#134),#120,.F.);
#136=CARTESIAN_POINT('',(34.131917268238773,0.0,0.0));
#137=DIRECTION('',(-1.0,0.0,0.0));
#138=DIRECTION('',(0.0,-1.0,0.0));
#139=AXIS2_PLACEMENT_3D('',#136,#137,#138);
#140=CYLINDRICAL_SURFACE('',#139,6.449999999999988);
#141=CARTESIAN_POINT('',(28.0,-6.449999999999989,0.0));
#142=VERTEX_POINT('',#141);
#143=CARTESIAN_POINT('',(28.0,0.0,0.0));
#144=DIRECTION('',(-1.0,0.0,0.0));
#145=DIRECTION('',(0.0,-1.0,0.0));
#146=AXIS2_PLACEMENT_3D('',#143,#144,#145);
#147=CIRCLE('',#146,6.449999999999989);
#148=EDGE_CURVE('',#142,#142,#147,.T.);
#149=ORIENTED_EDGE('',*,*,#148,.F.);
#150=EDGE_LOOP('',(#149));
#151=FACE_OUTER_BOUND('',#150,.T.);
#152=ORIENTED_EDGE('',*,*,#128,.T.);
#153=EDGE_LOOP('',(#152));
#154=FACE_BOUND('',#153,.T.);
#155=ADVANCED_FACE('',(#151,#154),#140,.T.);
#156=CARTESIAN_POINT('',(28.0,0.0,0.0));
#157=DIRECTION('',(-1.0,0.0,0.0));
#158=DIRECTION('',(0.0,0.0,1.0));
#159=AXIS2_PLACEMENT_3D('',#156,#157,#158);
#160=TOROIDAL_SURFACE('',#159,6.949999999999989,0.499999999999999);
#161=CARTESIAN_POINT('',(27.5,-6.94999999999999,0.0));
#162=VERTEX_POINT('',#161);
#163=CARTESIAN_POINT('',(27.5,0.0,0.0));
#164=DIRECTION('',(-1.0,0.0,0.0));
#165=DIRECTION('',(0.0,-1.0,0.0));
#166=AXIS2_PLACEMENT_3D('',#163,#164,#165);
#167=CIRCLE('',#166,6.94999999999999);
#168=EDGE_CURVE('',#162,#162,#167,.T.);
#169=ORIENTED_EDGE('',*,*,#168,.F.);
#170=EDGE_LOOP('',(#169));
#171=FACE_OUTER_BOUND('',#170,.T.);
#172=ORIENTED_EDGE('',*,*,#148,.T.);
#173=EDGE_LOOP('',(#172));
#174=FACE_BOUND('',#173,.T.);
#175=ADVANCED_FACE('',(#171,#174),#160,.F.);
#176=CARTESIAN_POINT('',(27.5,-6.974999999999996,0.0));
#177=DIRECTION('',(1.0,0.0,0.0));
#178=DIRECTION('',(0.0,0.0,-1.0));
#179=AXIS2_PLACEMENT_3D('',#176,#177,#178);
#180=PLANE('',#179);
#181=CARTESIAN_POINT('',(27.5,-7.000000000000001,0.0));
#182=VERTEX_POINT('',#181);
#183=CARTESIAN_POINT('',(27.5,0.0,0.0));
#184=DIRECTION('',(-1.0,0.0,0.0));
#185=DIRECTION('',(0.0,-1.0,0.0));
#186=AXIS2_PLACEMENT_3D('',#183,#184,#185);
#187=CIRCLE('',#186,7.000000000000001);
#188=EDGE_CURVE('',#182,#182,#187,.T.);
#189=ORIENTED_EDGE('',*,*,#188,.F.);
#190=EDGE_LOOP('',(#189));
#191=FACE_OUTER_BOUND('',#190,.T.);
#192=ORIENTED_EDGE('',*,*,#168,.T.);
#193=EDGE_LOOP('',(#192));
#194=FACE_BOUND('',#193,.T.);
#195=ADVANCED_FACE('',(#191,#194),#180,.T.);
#196=CARTESIAN_POINT('',(26.25,0.0,0.0));
#197=DIRECTION('',(-1.0,0.0,0.0));
#198=DIRECTION('',(0.0,-1.0,0.0));
#199=AXIS2_PLACEMENT_3D('',#196,#197,#198);
#200=CYLINDRICAL_SURFACE('',#199,7.000000000000001);
#201=CARTESIAN_POINT('',(25.0,-7.000000000000001,0.0));
#202=VERTEX_POINT('',#201);
#203=CARTESIAN_POINT('',(25.0,0.0,0.0));
#204=DIRECTION('',(-1.0,0.0,0.0));
#205=DIRECTION('',(0.0,-1.0,0.0));
#206=AXIS2_PLACEMENT_3D('',#203,#204,#205);
#207=CIRCLE('',#206,7.000000000000001);
#208=EDGE_CURVE('',#202,#202,#207,.T.);
#209=ORIENTED_EDGE('',*,*,#208,.F.);
#210=EDGE_LOOP('',(#209));
#211=FACE_OUTER_BOUND('',#210,.T.);
#212=ORIENTED_EDGE('',*,*,#188,.T.);
#213=EDGE_LOOP('',(#212));
#214=FACE_BOUND('',#213,.T.);
#215=ADVANCED_FACE('',(#211,#214),#200,.T.);
#216=CARTESIAN_POINT('',(25.0,-5.525,0.0));
#217=DIRECTION('',(-1.0,0.0,0.0));
#218=DIRECTION('',(0.0,0.0,1.0));
#219=AXIS2_PLACEMENT_3D('',#216,#217,#218);
#220=PLANE('',#219);
#221=ORIENTED_EDGE('',*,*,#208,.T.);
#222=EDGE_LOOP('',(#221));
#223=FACE_OUTER_BOUND('',#222,.T.);
#224=CARTESIAN_POINT('',(25.0,-4.049999999999999,0.0));
#225=VERTEX_POINT('',#224);
#226=CARTESIAN_POINT('',(25.0,0.0,0.0));
#227=DIRECTION('',(-1.0,0.0,0.0));
#228=DIRECTION('',(0.0,-1.0,0.0));
#229=AXIS2_PLACEMENT_3D('',#226,#227,#228);
#230=CIRCLE('',#229,4.049999999999999);
#231=EDGE_CURVE('',#225,#225,#230,.T.);
#232=ORIENTED_EDGE('',*,*,#231,.F.);
#233=EDGE_LOOP('',(#232));
#234=FACE_BOUND('',#233,.T.);
#235=ADVANCED_FACE('',(#223,#234),#220,.T.);
#236=CARTESIAN_POINT('',(23.999999999999993,0.0,0.0));
#237=DIRECTION('',(-1.0,0.0,0.0));
#238=DIRECTION('',(0.0,0.0,1.0));
#239=AXIS2_PLACEMENT_3D('',#236,#237,#238);
#240=TOROIDAL_SURFACE('',#239,4.050000000000004,1.000000000000005);
#241=CARTESIAN_POINT('',(24.0,-3.049999999999999,0.0));
#242=VERTEX_POINT('',#241);
#243=CARTESIAN_POINT('',(24.0,0.0,0.0));
#244=DIRECTION('',(-1.0,0.0,0.0));
#245=DIRECTION('',(0.0,-1.0,0.0));
#246=AXIS2_PLACEMENT_3D('',#243,#244,#245);
#247=CIRCLE('',#246,3.049999999999999);
#248=EDGE_CURVE('',#242,#242,#247,.T.);
#249=ORIENTED_EDGE('',*,*,#248,.F.);
#250=EDGE_LOOP('',(#249));
#251=FACE_OUTER_BOUND('',#250,.T.);
#252=ORIENTED_EDGE('',*,*,#231,.T.);
#253=EDGE_LOOP('',(#252));
#254=FACE_BOUND('',#253,.T.);
#255=ADVANCED_FACE('',(#251,#254),#240,.F.);
#256=CARTESIAN_POINT('',(17.75,0.0,0.0));
#257=DIRECTION('',(-1.0,0.0,0.0));
#258=DIRECTION('',(0.0,-1.0,0.0));
#259=AXIS2_PLACEMENT_3D('',#256,#257,#258);
#260=CYLINDRICAL_SURFACE('',#259,3.050000000000001);
#261=CARTESIAN_POINT('',(11.500000000000002,-3.050000000000001,0.0));
#262=VERTEX_POINT('',#261);
#263=CARTESIAN_POINT('',(11.500000000000004,0.0,0.0));
#264=DIRECTION('',(-1.0,0.0,0.0));
#265=DIRECTION('',(0.0,-1.0,0.0));
#266=AXIS2_PLACEMENT_3D('',#263,#264,#265);
#267=CIRCLE('',#266,3.050000000000001);
#268=EDGE_CURVE('',#262,#262,#267,.T.);
#269=ORIENTED_EDGE('',*,*,#268,.F.);
#270=EDGE_LOOP('',(#269));
#271=FACE_OUTER_BOUND('',#270,.T.);
#272=ORIENTED_EDGE('',*,*,#248,.T.);
#273=EDGE_LOOP('',(#272));
#274=FACE_BOUND('',#273,.T.);
#275=ADVANCED_FACE('',(#271,#274),#260,.T.);
#276=CARTESIAN_POINT('',(11.500000000000002,-3.250000000000001,0.0));
#277=DIRECTION('',(1.0,0.0,0.0));
#278=DIRECTION('',(0.0,0.0,-1.0));
#279=AXIS2_PLACEMENT_3D('',#276,#277,#278);
#280=PLANE('',#279);
#281=CARTESIAN_POINT('',(11.500000000000002,-3.45,0.0));
#282=VERTEX_POINT('',#281);
#283=CARTESIAN_POINT('',(11.500000000000004,0.0,0.0));
#284=DIRECTION('',(-1.0,0.0,0.0));
#285=DIRECTION('',(0.0,-1.0,0.0));
#286=AXIS2_PLACEMENT_3D('',#283,#284,#285);
#287=CIRCLE('',#286,3.45);
#288=EDGE_CURVE('',#282,#282,#287,.T.);
#289=ORIENTED_EDGE('',*,*,#288,.F.);
#290=EDGE_LOOP('',(#289));
#291=FACE_OUTER_BOUND('',#290,.T.);
#292=ORIENTED_EDGE('',*,*,#268,.T.);
#293=EDGE_LOOP('',(#292));
#294=FACE_BOUND('',#293,.T.);
#295=ADVANCED_FACE('',(#291,#294),#280,.T.);
#296=CARTESIAN_POINT('',(11.250000000000002,0.0,0.0));
#297=DIRECTION('',(-1.0,0.0,0.0));
#298=DIRECTION('',(0.0,0.0,1.0));
#299=AXIS2_PLACEMENT_3D('',#296,#297,#298);
#300=TOROIDAL_SURFACE('',#299,3.45,0.250000000000001);
#301=CARTESIAN_POINT('',(11.185295238724372,-3.691481456572267,0.0));
#302=VERTEX_POINT('',#301);
#303=CARTESIAN_POINT('',(11.185295238724372,0.0,0.0));
#304=DIRECTION('',(-1.0,0.0,0.0));
#305=DIRECTION('',(0.0,-1.0,0.0));
#306=AXIS2_PLACEMENT_3D('',#303,#304,#305);
#307=CIRCLE('',#306,3.691481456572267);
#308=EDGE_CURVE('',#302,#302,#307,.T.);
#309=ORIENTED_EDGE('',*,*,#308,.F.);
#310=EDGE_LOOP('',(#309));
#311=FACE_OUTER_BOUND('',#310,.T.);
#312=ORIENTED_EDGE('',*,*,#288,.T.);
#313=EDGE_LOOP('',(#312));
#314=FACE_BOUND('',#313,.T.);
#315=ADVANCED_FACE('',(#311,#314),#300,.T.);
#316=CARTESIAN_POINT('',(9.531470476127563,0.0,0.0));
#317=DIRECTION('',(1.0,0.0,0.0));
#318=DIRECTION('',(0.0,-1.0,0.0));
#319=AXIS2_PLACEMENT_3D('',#316,#317,#318);
#320=CONICAL_SURFACE('',#319,3.400851854342774,9.966923569493382);
#321=CARTESIAN_POINT('',(7.877645713530759,-3.110222252113281,0.0));
#322=VERTEX_POINT('',#321);
#323=CARTESIAN_POINT('',(7.877645713530761,0.0,0.0));
#324=DIRECTION('',(-1.0,0.0,0.0));
#325=DIRECTION('',(0.0,-1.0,0.0));
#326=AXIS2_PLACEMENT_3D('',#323,#324,#325);
#327=CIRCLE('',#326,3.110222252113281);
#328=EDGE_CURVE('',#322,#322,#327,.T.);
#329=ORIENTED_EDGE('',*,*,#328,.F.);
#330=EDGE_LOOP('',(#329));
#331=FACE_OUTER_BOUND('',#330,.T.);
#332=ORIENTED_EDGE('',*,*,#308,.T.);
#333=EDGE_LOOP('',(#332));
#334=FACE_BOUND('',#333,.T.);
#335=ADVANCED_FACE('',(#331,#334),#320,.T.);
#336=CARTESIAN_POINT('',(7.800000000000003,0.0,0.0));
#337=DIRECTION('',(-1.0,0.0,0.0));
#338=DIRECTION('',(0.0,0.0,1.0));
#339=AXIS2_PLACEMENT_3D('',#336,#337,#338);
#340=TOROIDAL_SURFACE('',#339,3.400000000000001,0.3);
#341=CARTESIAN_POINT('',(7.5,-3.400000000000001,0.0));
#342=VERTEX_POINT('',#341);
#343=CARTESIAN_POINT('',(7.5,0.0,0.0));
#344=DIRECTION('',(-1.0,0.0,0.0));
#345=DIRECTION('',(0.0,-1.0,0.0));
#346=AXIS2_PLACEMENT_3D('',#343,#344,#345);
#347=CIRCLE('',#346,3.400000000000001);
#348=EDGE_CURVE('',#342,#342,#347,.T.);
#349=ORIENTED_EDGE('',*,*,#348,.F.);
#350=EDGE_LOOP('',(#349));
#351=FACE_OUTER_BOUND('',#350,.T.);
#352=ORIENTED_EDGE('',*,*,#328,.T.);
#353=EDGE_LOOP('',(#352));
#354=FACE_BOUND('',#353,.T.);
#355=ADVANCED_FACE('',(#351,#354),#340,.F.);
#356=CARTESIAN_POINT('',(7.5,-3.425,0.0));
#357=DIRECTION('',(1.0,0.0,0.0));
#358=DIRECTION('',(0.0,0.0,-1.0));
#359=AXIS2_PLACEMENT_3D('',#356,#357,#358);
#360=PLANE('',#359);
#361=CARTESIAN_POINT('',(7.500000000000001,-3.45,0.0));
#362=VERTEX_POINT('',#361);
#363=CARTESIAN_POINT('',(7.5,0.0,0.0));
#364=DIRECTION('',(-1.0,0.0,0.0));
#365=DIRECTION('',(0.0,-1.0,0.0));
#366=AXIS2_PLACEMENT_3D('',#363,#364,#365);
#367=CIRCLE('',#366,3.45);
#368=EDGE_CURVE('',#362,#362,#367,.T.);
#369=ORIENTED_EDGE('',*,*,#368,.F.);
#370=EDGE_LOOP('',(#369));
#371=FACE_OUTER_BOUND('',#370,.T.);
#372=ORIENTED_EDGE('',*,*,#348,.T.);
#373=EDGE_LOOP('',(#372));
#374=FACE_BOUND('',#373,.T.);
#375=ADVANCED_FACE('',(#371,#374),#360,.T.);
#376=CARTESIAN_POINT('',(7.250000000000001,0.0,0.0));
#377=DIRECTION('',(-1.0,0.0,0.0));
#378=DIRECTION('',(0.0,0.0,1.0));
#379=AXIS2_PLACEMENT_3D('',#376,#377,#378);
#380=TOROIDAL_SURFACE('',#379,3.45,0.25);
#381=CARTESIAN_POINT('',(7.185295238724371,-3.691481456572268,0.0));
#382=VERTEX_POINT('',#381);
#383=CARTESIAN_POINT('',(7.185295238724372,0.0,0.0));
#384=DIRECTION('',(-1.0,0.0,0.0));
#385=DIRECTION('',(0.0,-1.0,0.0));
#386=AXIS2_PLACEMENT_3D('',#383,#384,#385);
#387=CIRCLE('',#386,3.691481456572268);
#388=EDGE_CURVE('',#382,#382,#387,.T.);
#389=ORIENTED_EDGE('',*,*,#388,.F.);
#390=EDGE_LOOP('',(#389));
#391=FACE_OUTER_BOUND('',#390,.T.);
#392=ORIENTED_EDGE('',*,*,#368,.T.);
#393=EDGE_LOOP('',(#392));
#394=FACE_BOUND('',#393,.T.);
#395=ADVANCED_FACE('',(#391,#394),#380,.T.);
#396=CARTESIAN_POINT('',(5.342647619362184,0.0,0.0));
#397=DIRECTION('',(1.0,0.0,0.0));
#398=DIRECTION('',(0.0,-1.0,0.0));
#399=AXIS2_PLACEMENT_3D('',#396,#397,#398);
#400=CONICAL_SURFACE('',#399,3.395740728286134,9.118079790256575);
#401=CARTESIAN_POINT('',(3.500000000000001,-3.100000000000001,0.0));
#402=VERTEX_POINT('',#401);
#403=CARTESIAN_POINT('',(3.499999999999996,0.0,0.0));
#404=DIRECTION('',(-1.0,0.0,0.0));
#405=DIRECTION('',(0.0,-1.0,0.0));
#406=AXIS2_PLACEMENT_3D('',#403,#404,#405);
#407=CIRCLE('',#406,3.100000000000001);
#408=EDGE_CURVE('',#402,#402,#407,.T.);
#409=ORIENTED_EDGE('',*,*,#408,.F.);
#410=EDGE_LOOP('',(#409));
#411=FACE_OUTER_BOUND('',#410,.T.);
#412=ORIENTED_EDGE('',*,*,#388,.T.);
#413=EDGE_LOOP('',(#412));
#414=FACE_BOUND('',#413,.T.);
#415=ADVANCED_FACE('',(#411,#414),#400,.T.);
#416=CARTESIAN_POINT('',(3.500000000000001,3.796405E-016,-3.1));
#417=CARTESIAN_POINT('',(1.628540545115866,5.756331E-016,-4.700400893073453));
#418=CARTESIAN_POINT('',(0.0,3.494378E-016,-2.853376474518233));
#419=CARTESIAN_POINT('',(3.500000000000001,3.1,-3.099999999999999));
#420=CARTESIAN_POINT('',(1.628540545115866,4.700400893073453,-4.700400893073451));
#421=CARTESIAN_POINT('',(0.0,2.853376474518233,-2.853376474518231));
#422=CARTESIAN_POINT('',(3.500000000000001,3.1,3.796405E-016));
#423=CARTESIAN_POINT('',(1.628540545115866,4.700400893073453,5.756331E-016));
#424=CARTESIAN_POINT('',(0.0,2.853376474518233,3.494378E-016));
#425=CARTESIAN_POINT('',(3.500000000000001,3.099999999999999,3.1));
#426=CARTESIAN_POINT('',(1.628540545115866,4.700400893073451,4.700400893073453));
#427=CARTESIAN_POINT('',(0.0,2.853376474518231,2.853376474518233));
#428=CARTESIAN_POINT('',(3.500000000000001,-3.796405E-016,3.1));
#429=CARTESIAN_POINT('',(1.628540545115866,-5.756331E-016,4.700400893073453));
#430=CARTESIAN_POINT('',(0.0,-3.494378E-016,2.853376474518233));
#431=CARTESIAN_POINT('',(3.500000000000001,-3.1,3.099999999999999));
#432=CARTESIAN_POINT('',(1.628540545115866,-4.700400893073453,4.700400893073451));
#433=CARTESIAN_POINT('',(0.0,-2.853376474518233,2.853376474518231));
#434=CARTESIAN_POINT('',(3.500000000000001,-3.1,-3.796405E-016));
#435=CARTESIAN_POINT('',(1.628540545115866,-4.700400893073453,-5.756331E-016));
#436=CARTESIAN_POINT('',(0.0,-2.853376474518233,-3.494378E-016));
#437=CARTESIAN_POINT('',(3.500000000000001,-3.099999999999999,-3.1));
#438=CARTESIAN_POINT('',(1.628540545115866,-4.700400893073451,-4.700400893073453));
#439=CARTESIAN_POINT('',(0.0,-2.853376474518231,-2.853376474518233));
#440=CARTESIAN_POINT('',(3.500000000000001,3.796405E-016,-3.1));
#441=CARTESIAN_POINT('',(1.628540545115866,5.756331E-016,-4.700400893073453));
#442=CARTESIAN_POINT('',(0.0,3.494378E-016,-2.853376474518233));
#450=(BOUNDED_SURFACE()B_SPLINE_SURFACE(2,2,((#416,#419,#422,#425,#428,#431,#434,#437,#440),(#417,#420,#423,#426,#429,#432,#435,#438,#441),(#418,#421,#424,#427,#430,#433,#436,#439,#442)),.UNSPECIFIED.,.F.,.T.,.U.)B_SPLINE_SURFACE_WITH_KNOTS((3,3),(3,2,2,2,3),(-0.707483211779343,0.848178390294787),(0.0,1.570796326794897,3.141592653589793,4.71238898038469,6.283185307179586),.UNSPECIFIED.)GEOMETRIC_REPRESENTATION_ITEM()RATIONAL_B_SPLINE_SURFACE(((1.0,0.707106781186548,1.0,0.707106781186548,1.0,0.707106781186548,1.0,0.707106781186548,1.0),(0.712437417228459,0.503769328893273,0.712437417228459,0.503769328893273,0.712437417228459,0.503769328893273,0.712437417228459,0.503769328893273,0.712437417228459),(1.0,0.707106781186548,1.0,0.707106781186548,1.0,0.707106781186548,1.0,0.707106781186548,1.0)))REPRESENTATION_ITEM('')SURFACE());
#451=CARTESIAN_POINT('',(2.775558E-016,-2.853376474518234,0.0));
#452=VERTEX_POINT('',#451);
#453=CARTESIAN_POINT('',(0.0,0.0,0.0));
#454=DIRECTION('',(-1.0,0.0,0.0));
#455=DIRECTION('',(0.0,-1.0,0.0));
#456=AXIS2_PLACEMENT_3D('',#453,#454,#455);
#457=CIRCLE('',#456,2.853376474518234);
#458=EDGE_CURVE('',#452,#452,#457,.T.);
#459=ORIENTED_EDGE('',*,*,#458,.F.);
#460=EDGE_LOOP('',(#459));
#461=FACE_OUTER_BOUND('',#460,.T.);
#462=ORIENTED_EDGE('',*,*,#408,.T.);
#463=EDGE_LOOP('',(#462));
#464=FACE_BOUND('',#463,.T.);
#465=ADVANCED_FACE('',(#461,#464),#450,.T.);
#466=CARTESIAN_POINT('',(1.387779E-016,-2.451688237259119,0.0));
#467=DIRECTION('',(-1.0,0.0,0.0));
#468=DIRECTION('',(0.0,0.0,1.0));
#469=AXIS2_PLACEMENT_3D('',#466,#467,#468);
#470=PLANE('',#469);
#471=ORIENTED_EDGE('',*,*,#458,.T.);
#472=EDGE_LOOP('',(#471));
#473=FACE_OUTER_BOUND('',#472,.T.);
#474=CARTESIAN_POINT('',(0.0,-2.050000000000003,0.0));
#475=VERTEX_POINT('',#474);
#476=CARTESIAN_POINT('',(0.0,0.0,0.0));
#477=DIRECTION('',(-1.0,0.0,0.0));
#478=DIRECTION('',(0.0,-1.0,0.0));
#479=AXIS2_PLACEMENT_3D('',#476,#477,#478);
#480=CIRCLE('',#479,2.050000000000003);
#481=EDGE_CURVE('',#475,#475,#480,.T.);
#482=ORIENTED_EDGE('',*,*,#481,.F.);
#483=EDGE_LOOP('',(#482));
#484=FACE_BOUND('',#483,.T.);
#485=ADVANCED_FACE('',(#473,#484),#470,.T.);
#486=CARTESIAN_POINT('',(13.08142105483752,0.0,0.0));
#487=DIRECTION('',(-1.0,0.0,0.0));
#488=DIRECTION('',(0.0,-1.0,0.0));
#489=AXIS2_PLACEMENT_3D('',#486,#487,#488);
#490=CYLINDRICAL_SURFACE('',#489,2.05);
#491=CARTESIAN_POINT('',(26.16284210967504,-2.049999999999997,0.0));
#492=VERTEX_POINT('',#491);
#493=CARTESIAN_POINT('',(26.16284210967504,0.0,0.0));
#494=DIRECTION('',(-1.0,0.0,0.0));
#495=DIRECTION('',(0.0,-1.0,0.0));
#496=AXIS2_PLACEMENT_3D('',#493,#494,#495);
#497=CIRCLE('',#496,2.049999999999997);
#498=EDGE_CURVE('',#492,#492,#497,.T.);
#499=ORIENTED_EDGE('',*,*,#498,.F.);
#500=EDGE_LOOP('',(#499));
#501=FACE_OUTER_BOUND('',#500,.T.);
#502=ORIENTED_EDGE('',*,*,#481,.T.);
#503=EDGE_LOOP('',(#502));
#504=FACE_BOUND('',#503,.T.);
#505=ADVANCED_FACE('',(#501,#504),#490,.F.);
#506=CARTESIAN_POINT('',(26.58142105483752,0.0,0.0));
#507=DIRECTION('',(1.0,0.0,0.0));
#508=DIRECTION('',(0.0,-1.0,0.0));
#509=AXIS2_PLACEMENT_3D('',#506,#507,#508);
#510=CONICAL_SURFACE('',#509,2.775,60.000000000000043);
#511=CARTESIAN_POINT('',(27.0,-3.500000000000004,0.0));
#512=VERTEX_POINT('',#511);
#513=CARTESIAN_POINT('',(27.0,0.0,0.0));
#514=DIRECTION('',(-1.0,0.0,0.0));
#515=DIRECTION('',(0.0,-1.0,0.0));
#516=AXIS2_PLACEMENT_3D('',#513,#514,#515);
#517=CIRCLE('',#516,3.500000000000004);
#518=EDGE_CURVE('',#512,#512,#517,.T.);
#519=ORIENTED_EDGE('',*,*,#518,.F.);
#520=EDGE_LOOP('',(#519));
#521=FACE_OUTER_BOUND('',#520,.T.);
#522=ORIENTED_EDGE('',*,*,#498,.T.);
#523=EDGE_LOOP('',(#522));
#524=FACE_BOUND('',#523,.T.);
#525=ADVANCED_FACE('',(#521,#524),#510,.F.);
#526=CARTESIAN_POINT('',(39.5,0.0,0.0));
#527=DIRECTION('',(-1.0,0.0,0.0));
#528=DIRECTION('',(0.0,-1.0,0.0));
#529=AXIS2_PLACEMENT_3D('',#526,#527,#528);
#530=CYLINDRICAL_SURFACE('',#529,3.500000000000001);
#531=CARTESIAN_POINT('',(52.0,-3.499999999999998,0.0));
#532=VERTEX_POINT('',#531);
#533=CARTESIAN_POINT('',(52.0,0.0,0.0));
#534=DIRECTION('',(-1.0,0.0,0.0));
#535=DIRECTION('',(0.0,-1.0,0.0));
#536=AXIS2_PLACEMENT_3D('',#533,#534,#535);
#537=CIRCLE('',#536,3.499999999999998);
#538=EDGE_CURVE('',#532,#532,#537,.T.);
#539=ORIENTED_EDGE('',*,*,#538,.F.);
#540=EDGE_LOOP('',(#539));
#541=FACE_OUTER_BOUND('',#540,.T.);
#542=ORIENTED_EDGE('',*,*,#518,.T.);
#543=EDGE_LOOP('',(#542));
#544=FACE_BOUND('',#543,.T.);
#545=ADVANCED_FACE('',(#541,#544),#530,.F.);
#546=CARTESIAN_POINT('',(52.0,-3.725,0.0));
#547=DIRECTION('',(1.0,0.0,0.0));
#548=DIRECTION('',(0.0,0.0,-1.0));
#549=AXIS2_PLACEMENT_3D('',#546,#547,#548);
#550=PLANE('',#549);
#551=CARTESIAN_POINT('',(52.0,-3.95,0.0));
#552=VERTEX_POINT('',#551);
#553=CARTESIAN_POINT('',(52.0,0.0,0.0));
#554=DIRECTION('',(-1.0,0.0,0.0));
#555=DIRECTION('',(0.0,-1.0,0.0));
#556=AXIS2_PLACEMENT_3D('',#553,#554,#555);
#557=CIRCLE('',#556,3.95);
#558=EDGE_CURVE('',#552,#552,#557,.T.);
#559=ORIENTED_EDGE('',*,*,#558,.F.);
#560=EDGE_LOOP('',(#559));
#561=FACE_OUTER_BOUND('',#560,.T.);
#562=ORIENTED_EDGE('',*,*,#538,.T.);
#563=EDGE_LOOP('',(#562));
#564=FACE_BOUND('',#563,.T.);
#565=ADVANCED_FACE('',(#561,#564),#550,.T.);
#566=CARTESIAN_POINT('',(51.000000000000007,0.0,0.0));
#567=DIRECTION('',(-1.0,0.0,0.0));
#568=DIRECTION('',(0.0,0.0,1.0));
#569=AXIS2_PLACEMENT_3D('',#566,#567,#568);
#570=TOROIDAL_SURFACE('',#569,3.950000000000006,0.999999999999994);
#571=CARTESIAN_POINT('',(51.000000000000007,-4.95,0.0));
#572=VERTEX_POINT('',#571);
#573=CARTESIAN_POINT('',(51.000000000000007,0.0,0.0));
#574=DIRECTION('',(-1.0,0.0,0.0));
#575=DIRECTION('',(0.0,-1.0,0.0));
#576=AXIS2_PLACEMENT_3D('',#573,#574,#575);
#577=CIRCLE('',#576,4.95);
#578=EDGE_CURVE('',#572,#572,#577,.T.);
#579=ORIENTED_EDGE('',*,*,#578,.F.);
#580=EDGE_LOOP('',(#579));
#581=FACE_OUTER_BOUND('',#580,.T.);
#582=ORIENTED_EDGE('',*,*,#558,.T.);
#583=EDGE_LOOP('',(#582));
#584=FACE_BOUND('',#583,.T.);
#585=ADVANCED_FACE('',(#581,#584),#570,.T.);
#586=CARTESIAN_POINT('',(48.200000000000003,0.0,0.0));
#587=DIRECTION('',(-1.0,0.0,0.0));
#588=DIRECTION('',(0.0,-1.0,0.0));
#589=AXIS2_PLACEMENT_3D('',#586,#587,#588);
#590=CYLINDRICAL_SURFACE('',#589,4.95);
#591=ORIENTED_EDGE('',*,*,#91,.F.);
#592=EDGE_LOOP('',(#591));
#593=FACE_OUTER_BOUND('',#592,.T.);
#594=ORIENTED_EDGE('',*,*,#578,.T.);
#595=EDGE_LOOP('',(#594));
#596=FACE_BOUND('',#595,.T.);
#597=ADVANCED_FACE('',(#593,#596),#590,.T.);
#598=CLOSED_SHELL('',(#95,#115,#135,#155,#175,#195,#215,#235,#255,#275,#295,#315,#335,#355,#375,#395,#415,#465,#485,#505,#525,#545,#565,#585,#597));
#599=MANIFOLD_SOLID_BREP('Solid1',#598);
#600=COLOUR_RGB('Default',0.75,0.75,0.75);
#601=FILL_AREA_STYLE_COLOUR('Default',#600);
#602=FILL_AREA_STYLE('Default',(#601));
#603=SURFACE_STYLE_FILL_AREA(#602);
#604=SURFACE_SIDE_STYLE('Default',(#603));
#605=SURFACE_STYLE_USAGE(.BOTH.,#604);
#606=PRESENTATION_STYLE_ASSIGNMENT((#605));
#607=STYLED_ITEM('',(#606),#599);
#608=MECHANICAL_DESIGN_GEOMETRIC_PRESENTATION_REPRESENTATION('',(#607),#36);
#609=ADVANCED_BREP_SHAPE_REPRESENTATION('ABSR',(#599),#36);
#610=SHAPE_REPRESENTATION_RELATIONSHIP('SRR','None',#609,#41);
ENDSEC;
END-ISO-10303-21;
