ISO-10303-21;
HEADER;
FILE_DESCRIPTION(('STEP AP214'),'1');
FILE_NAME('C:/PartsXMLTools/RobotParts/Generated/STEP_SAT/CAD/Temp/0124_06_00.stp','2016-07-07T14:22:24',('TraceParts'),('TraceParts S.A.'),'Spatial InterOp 3D',' ',' ');
FILE_SCHEMA(('automotive_design'));
ENDSEC;
DATA;
#1=PRODUCT_DEFINITION_CONTEXT('',#9,'design');
#2=APPLICATION_PROTOCOL_DEFINITION('INTERNATIONAL STANDARD','automotive_design',1994,#9);
#3=PRODUCT_CATEGORY_RELATIONSHIP('NONE','NONE',#10,#11);
#4=SHAPE_DEFINITION_REPRESENTATION(#12,#13);
#5= (GEOMETRIC_REPRESENTATION_CONTEXT(3)GLOBAL_UNCERTAINTY_ASSIGNED_CONTEXT((#16))GLOBAL_UNIT_ASSIGNED_CONTEXT((#18,#19,#20))REPRESENTATION_CONTEXT('NONE','WORKSPACE'));
#9=APPLICATION_CONTEXT(' ');
#10=PRODUCT_CATEGORY('part','NONE');
#11=PRODUCT_RELATED_PRODUCT_CATEGORY('detail',' ',(#22));
#12=PRODUCT_DEFINITION_SHAPE('NONE','NONE',#23);
#13=ADVANCED_BREP_SHAPE_REPRESENTATION('0124-06-00',(#24,#25),#5);
#16=UNCERTAINTY_MEASURE_WITH_UNIT(LENGTH_MEASURE(1.0E-006),#18,'','');
#18= (CONVERSION_BASED_UNIT('MILLIMETRE',#28)LENGTH_UNIT()NAMED_UNIT(#31));
#19= (NAMED_UNIT(#33)PLANE_ANGLE_UNIT()SI_UNIT($,.RADIAN.));
#20= (NAMED_UNIT(#33)SOLID_ANGLE_UNIT()SI_UNIT($,.STERADIAN.));
#22=PRODUCT('0124-06-00','0124-06-00','PART-0124-06-00-DESC',(#39));
#23=PRODUCT_DEFINITION('NONE','NONE',#40,#1);
#24=MANIFOLD_SOLID_BREP('0124-06-00',#41);
#25=AXIS2_PLACEMENT_3D('',#42,#43,#44);
#28=LENGTH_MEASURE_WITH_UNIT(LENGTH_MEASURE(1.0),#45);
#31=DIMENSIONAL_EXPONENTS(1.0,0.0,0.0,0.0,0.0,0.0,0.0);
#33=DIMENSIONAL_EXPONENTS(0.0,0.0,0.0,0.0,0.0,0.0,0.0);
#39=PRODUCT_CONTEXT('',#9,'mechanical');
#40=PRODUCT_DEFINITION_FORMATION_WITH_SPECIFIED_SOURCE(' ','NONE',#22,.NOT_KNOWN.);
#41=CLOSED_SHELL('',(#46,#47,#48,#49,#50,#51,#52,#53,#54,#55,#56,#57,#58,#59));
#42=CARTESIAN_POINT('',(0.0,0.0,0.0));
#43=DIRECTION('',(0.0,0.0,1.0));
#44=DIRECTION('',(1.0,0.0,0.0));
#45= (NAMED_UNIT(#31)LENGTH_UNIT()SI_UNIT(.MILLI.,.METRE.));
#46=ADVANCED_FACE('',(#61,#62),#63,.F.);
#47=ADVANCED_FACE('',(#64),#65,.F.);
#48=ADVANCED_FACE('',(#66),#67,.F.);
#49=ADVANCED_FACE('',(#68,#69),#70,.T.);
#50=ADVANCED_FACE('',(#71),#72,.T.);
#51=ADVANCED_FACE('',(#73),#74,.T.);
#52=ADVANCED_FACE('',(#75),#76,.T.);
#53=ADVANCED_FACE('',(#77),#78,.T.);
#54=ADVANCED_FACE('',(#79),#80,.T.);
#55=ADVANCED_FACE('',(#81),#82,.T.);
#56=ADVANCED_FACE('',(#83),#84,.T.);
#57=ADVANCED_FACE('',(#85),#86,.T.);
#58=ADVANCED_FACE('',(#87),#88,.T.);
#59=ADVANCED_FACE('',(#89),#90,.T.);
#61=FACE_OUTER_BOUND('',#91,.T.);
#62=FACE_BOUND('',#92,.T.);
#63=PLANE('',#93);
#64=FACE_OUTER_BOUND('',#94,.T.);
#65=CYLINDRICAL_SURFACE('',#95,3.0);
#66=FACE_OUTER_BOUND('',#96,.T.);
#67=CYLINDRICAL_SURFACE('',#97,3.0);
#68=FACE_OUTER_BOUND('',#98,.T.);
#69=FACE_BOUND('',#99,.T.);
#70=PLANE('',#100);
#71=FACE_OUTER_BOUND('',#101,.T.);
#72=CYLINDRICAL_SURFACE('',#102,3.35);
#73=FACE_OUTER_BOUND('',#103,.T.);
#74=CYLINDRICAL_SURFACE('',#104,3.35);
#75=FACE_OUTER_BOUND('',#105,.T.);
#76=CONICAL_SURFACE('',#106,3.8,0.7853981633973);
#77=FACE_OUTER_BOUND('',#107,.T.);
#78=CONICAL_SURFACE('',#108,3.8,0.7853981633973);
#79=FACE_OUTER_BOUND('',#109,.T.);
#80=CYLINDRICAL_SURFACE('',#110,4.25);
#81=FACE_OUTER_BOUND('',#111,.T.);
#82=CYLINDRICAL_SURFACE('',#112,4.25);
#83=FACE_OUTER_BOUND('',#113,.T.);
#84=CONICAL_SURFACE('',#114,3.8,0.7853981633973);
#85=FACE_OUTER_BOUND('',#115,.T.);
#86=CONICAL_SURFACE('',#116,3.8,0.7853981633973);
#87=FACE_OUTER_BOUND('',#117,.T.);
#88=CYLINDRICAL_SURFACE('',#118,3.35);
#89=FACE_OUTER_BOUND('',#119,.T.);
#90=CYLINDRICAL_SURFACE('',#120,3.35);
#91=EDGE_LOOP('',(#121,#122));
#92=EDGE_LOOP('',(#123,#124));
#93=AXIS2_PLACEMENT_3D('',#125,#126,#127);
#94=EDGE_LOOP('',(#128,#129,#130,#131));
#95=AXIS2_PLACEMENT_3D('',#132,#133,#134);
#96=EDGE_LOOP('',(#135,#136,#137,#138));
#97=AXIS2_PLACEMENT_3D('',#139,#140,#141);
#98=EDGE_LOOP('',(#142,#143));
#99=EDGE_LOOP('',(#144,#145));
#100=AXIS2_PLACEMENT_3D('',#146,#147,#148);
#101=EDGE_LOOP('',(#149,#150,#151,#152));
#102=AXIS2_PLACEMENT_3D('',#153,#154,#155);
#103=EDGE_LOOP('',(#156,#157,#158,#159));
#104=AXIS2_PLACEMENT_3D('',#160,#161,#162);
#105=EDGE_LOOP('',(#163,#164,#165,#166));
#106=AXIS2_PLACEMENT_3D('',#167,#168,#169);
#107=EDGE_LOOP('',(#170,#171,#172,#173));
#108=AXIS2_PLACEMENT_3D('',#174,#175,#176);
#109=EDGE_LOOP('',(#177,#178,#179,#180));
#110=AXIS2_PLACEMENT_3D('',#181,#182,#183);
#111=EDGE_LOOP('',(#184,#185,#186,#187));
#112=AXIS2_PLACEMENT_3D('',#188,#189,#190);
#113=EDGE_LOOP('',(#191,#192,#193,#194));
#114=AXIS2_PLACEMENT_3D('',#195,#196,#197);
#115=EDGE_LOOP('',(#198,#199,#200,#201));
#116=AXIS2_PLACEMENT_3D('',#202,#203,#204);
#117=EDGE_LOOP('',(#205,#206,#207,#208));
#118=AXIS2_PLACEMENT_3D('',#209,#210,#211);
#119=EDGE_LOOP('',(#212,#213,#214,#215));
#120=AXIS2_PLACEMENT_3D('',#216,#217,#218);
#121=ORIENTED_EDGE('',*,*,#219,.F.);
#122=ORIENTED_EDGE('',*,*,#220,.T.);
#123=ORIENTED_EDGE('',*,*,#221,.F.);
#124=ORIENTED_EDGE('',*,*,#222,.T.);
#125=CARTESIAN_POINT('',(0.0,0.0,0.0));
#126=DIRECTION('',(1.0,0.0,0.0));
#127=DIRECTION('',(0.0,1.0,-0.0));
#128=ORIENTED_EDGE('',*,*,#223,.T.);
#129=ORIENTED_EDGE('',*,*,#224,.F.);
#130=ORIENTED_EDGE('',*,*,#222,.F.);
#131=ORIENTED_EDGE('',*,*,#225,.T.);
#132=CARTESIAN_POINT('',(-0.325,0.0,0.0));
#133=DIRECTION('',(-1.0,-0.0,0.0));
#134=DIRECTION('',(0.0,-1.0,0.0));
#135=ORIENTED_EDGE('',*,*,#221,.T.);
#136=ORIENTED_EDGE('',*,*,#224,.T.);
#137=ORIENTED_EDGE('',*,*,#226,.F.);
#138=ORIENTED_EDGE('',*,*,#225,.F.);
#139=CARTESIAN_POINT('',(-0.325,0.0,0.0));
#140=DIRECTION('',(-1.0,-0.0,0.0));
#141=DIRECTION('',(0.0,-1.0,0.0));
#142=ORIENTED_EDGE('',*,*,#227,.F.);
#143=ORIENTED_EDGE('',*,*,#228,.T.);
#144=ORIENTED_EDGE('',*,*,#223,.F.);
#145=ORIENTED_EDGE('',*,*,#226,.T.);
#146=CARTESIAN_POINT('',(6.5,0.0,0.0));
#147=DIRECTION('',(1.0,0.0,0.0));
#148=DIRECTION('',(0.0,1.0,-0.0));
#149=ORIENTED_EDGE('',*,*,#229,.T.);
#150=ORIENTED_EDGE('',*,*,#230,.F.);
#151=ORIENTED_EDGE('',*,*,#228,.F.);
#152=ORIENTED_EDGE('',*,*,#231,.T.);
#153=CARTESIAN_POINT('',(-0.325,0.0,0.0));
#154=DIRECTION('',(-1.0,-0.0,0.0));
#155=DIRECTION('',(0.0,-1.0,0.0));
#156=ORIENTED_EDGE('',*,*,#227,.T.);
#157=ORIENTED_EDGE('',*,*,#230,.T.);
#158=ORIENTED_EDGE('',*,*,#232,.F.);
#159=ORIENTED_EDGE('',*,*,#231,.F.);
#160=CARTESIAN_POINT('',(-0.325,0.0,0.0));
#161=DIRECTION('',(-1.0,-0.0,0.0));
#162=DIRECTION('',(0.0,-1.0,0.0));
#163=ORIENTED_EDGE('',*,*,#232,.T.);
#164=ORIENTED_EDGE('',*,*,#233,.T.);
#165=ORIENTED_EDGE('',*,*,#234,.F.);
#166=ORIENTED_EDGE('',*,*,#235,.F.);
#167=CARTESIAN_POINT('',(5.05,0.0,0.0));
#168=DIRECTION('',(-1.0,0.0,-0.0));
#169=DIRECTION('',(0.0,1.0,0.0));
#170=ORIENTED_EDGE('',*,*,#236,.T.);
#171=ORIENTED_EDGE('',*,*,#233,.F.);
#172=ORIENTED_EDGE('',*,*,#229,.F.);
#173=ORIENTED_EDGE('',*,*,#235,.T.);
#174=CARTESIAN_POINT('',(5.05,0.0,0.0));
#175=DIRECTION('',(-1.0,0.0,-0.0));
#176=DIRECTION('',(0.0,1.0,0.0));
#177=ORIENTED_EDGE('',*,*,#237,.T.);
#178=ORIENTED_EDGE('',*,*,#238,.F.);
#179=ORIENTED_EDGE('',*,*,#236,.F.);
#180=ORIENTED_EDGE('',*,*,#239,.T.);
#181=CARTESIAN_POINT('',(-0.325,0.0,0.0));
#182=DIRECTION('',(-1.0,-0.0,0.0));
#183=DIRECTION('',(0.0,-1.0,0.0));
#184=ORIENTED_EDGE('',*,*,#234,.T.);
#185=ORIENTED_EDGE('',*,*,#238,.T.);
#186=ORIENTED_EDGE('',*,*,#240,.F.);
#187=ORIENTED_EDGE('',*,*,#239,.F.);
#188=CARTESIAN_POINT('',(-0.325,0.0,0.0));
#189=DIRECTION('',(-1.0,-0.0,0.0));
#190=DIRECTION('',(0.0,-1.0,0.0));
#191=ORIENTED_EDGE('',*,*,#240,.T.);
#192=ORIENTED_EDGE('',*,*,#241,.T.);
#193=ORIENTED_EDGE('',*,*,#242,.F.);
#194=ORIENTED_EDGE('',*,*,#243,.F.);
#195=CARTESIAN_POINT('',(1.45,0.0,0.0));
#196=DIRECTION('',(1.0,0.0,-0.0));
#197=DIRECTION('',(0.0,-1.0,0.0));
#198=ORIENTED_EDGE('',*,*,#244,.T.);
#199=ORIENTED_EDGE('',*,*,#241,.F.);
#200=ORIENTED_EDGE('',*,*,#237,.F.);
#201=ORIENTED_EDGE('',*,*,#243,.T.);
#202=CARTESIAN_POINT('',(1.45,0.0,0.0));
#203=DIRECTION('',(1.0,0.0,-0.0));
#204=DIRECTION('',(0.0,-1.0,0.0));
#205=ORIENTED_EDGE('',*,*,#219,.T.);
#206=ORIENTED_EDGE('',*,*,#245,.F.);
#207=ORIENTED_EDGE('',*,*,#244,.F.);
#208=ORIENTED_EDGE('',*,*,#246,.T.);
#209=CARTESIAN_POINT('',(-0.325,0.0,0.0));
#210=DIRECTION('',(-1.0,-0.0,0.0));
#211=DIRECTION('',(0.0,-1.0,0.0));
#212=ORIENTED_EDGE('',*,*,#242,.T.);
#213=ORIENTED_EDGE('',*,*,#245,.T.);
#214=ORIENTED_EDGE('',*,*,#220,.F.);
#215=ORIENTED_EDGE('',*,*,#246,.F.);
#216=CARTESIAN_POINT('',(-0.325,0.0,0.0));
#217=DIRECTION('',(-1.0,-0.0,0.0));
#218=DIRECTION('',(0.0,-1.0,0.0));
#219=EDGE_CURVE('',#247,#248,#249,.T.);
#220=EDGE_CURVE('',#247,#248,#250,.T.);
#221=EDGE_CURVE('',#251,#252,#253,.T.);
#222=EDGE_CURVE('',#251,#252,#254,.T.);
#223=EDGE_CURVE('',#255,#256,#257,.T.);
#224=EDGE_CURVE('',#252,#256,#258,.T.);
#225=EDGE_CURVE('',#251,#255,#259,.T.);
#226=EDGE_CURVE('',#255,#256,#260,.T.);
#227=EDGE_CURVE('',#261,#262,#263,.T.);
#228=EDGE_CURVE('',#261,#262,#264,.T.);
#229=EDGE_CURVE('',#265,#266,#267,.T.);
#230=EDGE_CURVE('',#262,#266,#268,.T.);
#231=EDGE_CURVE('',#261,#265,#269,.T.);
#232=EDGE_CURVE('',#265,#266,#270,.T.);
#233=EDGE_CURVE('',#266,#271,#272,.T.);
#234=EDGE_CURVE('',#273,#271,#274,.T.);
#235=EDGE_CURVE('',#265,#273,#275,.T.);
#236=EDGE_CURVE('',#273,#271,#276,.T.);
#237=EDGE_CURVE('',#277,#278,#279,.T.);
#238=EDGE_CURVE('',#271,#278,#280,.T.);
#239=EDGE_CURVE('',#273,#277,#281,.T.);
#240=EDGE_CURVE('',#277,#278,#282,.T.);
#241=EDGE_CURVE('',#278,#283,#284,.T.);
#242=EDGE_CURVE('',#285,#283,#286,.T.);
#243=EDGE_CURVE('',#277,#285,#287,.T.);
#244=EDGE_CURVE('',#285,#283,#288,.T.);
#245=EDGE_CURVE('',#283,#248,#289,.T.);
#246=EDGE_CURVE('',#285,#247,#290,.T.);
#247=VERTEX_POINT('',#291);
#248=VERTEX_POINT('',#292);
#249=CIRCLE('',#293,3.35);
#250=CIRCLE('',#294,3.35);
#251=VERTEX_POINT('',#295);
#252=VERTEX_POINT('',#296);
#253=CIRCLE('',#297,3.0);
#254=CIRCLE('',#298,3.0);
#255=VERTEX_POINT('',#299);
#256=VERTEX_POINT('',#300);
#257=CIRCLE('',#301,3.0);
#258=LINE('',#302,#303);
#259=LINE('',#304,#305);
#260=CIRCLE('',#306,3.0);
#261=VERTEX_POINT('',#307);
#262=VERTEX_POINT('',#308);
#263=CIRCLE('',#309,3.35);
#264=CIRCLE('',#310,3.35);
#265=VERTEX_POINT('',#311);
#266=VERTEX_POINT('',#312);
#267=CIRCLE('',#313,3.35);
#268=LINE('',#314,#315);
#269=LINE('',#316,#317);
#270=CIRCLE('',#318,3.35);
#271=VERTEX_POINT('',#319);
#272=LINE('',#320,#321);
#273=VERTEX_POINT('',#322);
#274=CIRCLE('',#323,4.25);
#275=LINE('',#324,#325);
#276=CIRCLE('',#326,4.25);
#277=VERTEX_POINT('',#327);
#278=VERTEX_POINT('',#328);
#279=CIRCLE('',#329,4.25);
#280=LINE('',#330,#331);
#281=LINE('',#332,#333);
#282=CIRCLE('',#334,4.25);
#283=VERTEX_POINT('',#335);
#284=LINE('',#336,#337);
#285=VERTEX_POINT('',#338);
#286=CIRCLE('',#339,3.35);
#287=LINE('',#340,#341);
#288=CIRCLE('',#342,3.35);
#289=LINE('',#343,#344);
#290=LINE('',#345,#346);
#291=CARTESIAN_POINT('',(0.0,3.35,0.0));
#292=CARTESIAN_POINT('',(0.0,-3.35,0.0));
#293=AXIS2_PLACEMENT_3D('',#347,#348,#349);
#294=AXIS2_PLACEMENT_3D('',#350,#351,#352);
#295=CARTESIAN_POINT('',(0.0,3.0,0.0));
#296=CARTESIAN_POINT('',(0.0,-3.0,0.0));
#297=AXIS2_PLACEMENT_3D('',#353,#354,#355);
#298=AXIS2_PLACEMENT_3D('',#356,#357,#358);
#299=CARTESIAN_POINT('',(6.5,3.0,0.0));
#300=CARTESIAN_POINT('',(6.5,-3.0,0.0));
#301=AXIS2_PLACEMENT_3D('',#359,#360,#361);
#302=CARTESIAN_POINT('',(0.0,-3.0,0.0));
#303=VECTOR('',#362,6.5);
#304=CARTESIAN_POINT('',(0.0,3.0,0.0));
#305=VECTOR('',#363,6.5);
#306=AXIS2_PLACEMENT_3D('',#364,#365,#366);
#307=CARTESIAN_POINT('',(6.5,3.35,0.0));
#308=CARTESIAN_POINT('',(6.5,-3.35,0.0));
#309=AXIS2_PLACEMENT_3D('',#367,#368,#369);
#310=AXIS2_PLACEMENT_3D('',#370,#371,#372);
#311=CARTESIAN_POINT('',(5.5,3.35,0.0));
#312=CARTESIAN_POINT('',(5.5,-3.35,0.0));
#313=AXIS2_PLACEMENT_3D('',#373,#374,#375);
#314=CARTESIAN_POINT('',(6.5,-3.35,0.0));
#315=VECTOR('',#376,1.0);
#316=CARTESIAN_POINT('',(6.5,3.35,0.0));
#317=VECTOR('',#377,1.0);
#318=AXIS2_PLACEMENT_3D('',#378,#379,#380);
#319=CARTESIAN_POINT('',(4.6,-4.25,0.0));
#320=CARTESIAN_POINT('',(5.5,-3.35,0.0));
#321=VECTOR('',#381,1.272792206136);
#322=CARTESIAN_POINT('',(4.6,4.25,0.0));
#323=AXIS2_PLACEMENT_3D('',#382,#383,#384);
#324=CARTESIAN_POINT('',(5.5,3.35,0.0));
#325=VECTOR('',#385,1.272792206136);
#326=AXIS2_PLACEMENT_3D('',#386,#387,#388);
#327=CARTESIAN_POINT('',(1.9,4.25,0.0));
#328=CARTESIAN_POINT('',(1.9,-4.25,0.0));
#329=AXIS2_PLACEMENT_3D('',#389,#390,#391);
#330=CARTESIAN_POINT('',(4.6,-4.25,0.0));
#331=VECTOR('',#392,2.7);
#332=CARTESIAN_POINT('',(4.6,4.25,0.0));
#333=VECTOR('',#393,2.7);
#334=AXIS2_PLACEMENT_3D('',#394,#395,#396);
#335=CARTESIAN_POINT('',(1.0,-3.35,0.0));
#336=CARTESIAN_POINT('',(1.9,-4.25,0.0));
#337=VECTOR('',#397,1.272792206136);
#338=CARTESIAN_POINT('',(1.0,3.35,0.0));
#339=AXIS2_PLACEMENT_3D('',#398,#399,#400);
#340=CARTESIAN_POINT('',(1.9,4.25,0.0));
#341=VECTOR('',#401,1.272792206136);
#342=AXIS2_PLACEMENT_3D('',#402,#403,#404);
#343=CARTESIAN_POINT('',(1.0,-3.35,0.0));
#344=VECTOR('',#405,1.0);
#345=CARTESIAN_POINT('',(1.0,3.35,0.0));
#346=VECTOR('',#406,1.0);
#347=CARTESIAN_POINT('',(0.0,0.0,0.0));
#348=DIRECTION('',(1.0,0.0,0.0));
#349=DIRECTION('',(0.0,1.0,0.0));
#350=CARTESIAN_POINT('',(0.0,0.0,0.0));
#351=DIRECTION('',(-1.0,0.0,0.0));
#352=DIRECTION('',(0.0,1.0,0.0));
#353=CARTESIAN_POINT('',(0.0,0.0,0.0));
#354=DIRECTION('',(-1.0,0.0,0.0));
#355=DIRECTION('',(0.0,1.0,0.0));
#356=CARTESIAN_POINT('',(0.0,0.0,0.0));
#357=DIRECTION('',(1.0,0.0,0.0));
#358=DIRECTION('',(0.0,1.0,0.0));
#359=CARTESIAN_POINT('',(6.5,0.0,0.0));
#360=DIRECTION('',(1.0,0.0,0.0));
#361=DIRECTION('',(0.0,1.0,0.0));
#362=DIRECTION('',(1.0,0.0,0.0));
#363=DIRECTION('',(1.0,0.0,0.0));
#364=CARTESIAN_POINT('',(6.5,0.0,0.0));
#365=DIRECTION('',(-1.0,0.0,0.0));
#366=DIRECTION('',(0.0,1.0,0.0));
#367=CARTESIAN_POINT('',(6.5,0.0,0.0));
#368=DIRECTION('',(-1.0,0.0,0.0));
#369=DIRECTION('',(0.0,1.0,0.0));
#370=CARTESIAN_POINT('',(6.5,0.0,0.0));
#371=DIRECTION('',(1.0,0.0,0.0));
#372=DIRECTION('',(0.0,1.0,0.0));
#373=CARTESIAN_POINT('',(5.5,0.0,0.0));
#374=DIRECTION('',(1.0,0.0,0.0));
#375=DIRECTION('',(0.0,1.0,0.0));
#376=DIRECTION('',(-1.0,0.0,0.0));
#377=DIRECTION('',(-1.0,0.0,0.0));
#378=CARTESIAN_POINT('',(5.5,0.0,0.0));
#379=DIRECTION('',(-1.0,0.0,0.0));
#380=DIRECTION('',(0.0,1.0,0.0));
#381=DIRECTION('',(-0.707106781186548,-0.707106781186548,0.0));
#382=CARTESIAN_POINT('',(4.6,0.0,0.0));
#383=DIRECTION('',(-1.0,0.0,0.0));
#384=DIRECTION('',(0.0,1.0,0.0));
#385=DIRECTION('',(-0.707106781186548,0.707106781186548,0.0));
#386=CARTESIAN_POINT('',(4.6,0.0,0.0));
#387=DIRECTION('',(1.0,0.0,0.0));
#388=DIRECTION('',(0.0,1.0,0.0));
#389=CARTESIAN_POINT('',(1.9,0.0,0.0));
#390=DIRECTION('',(1.0,0.0,0.0));
#391=DIRECTION('',(0.0,1.0,0.0));
#392=DIRECTION('',(-1.0,0.0,0.0));
#393=DIRECTION('',(-1.0,0.0,0.0));
#394=CARTESIAN_POINT('',(1.9,0.0,0.0));
#395=DIRECTION('',(-1.0,0.0,0.0));
#396=DIRECTION('',(0.0,1.0,0.0));
#397=DIRECTION('',(-0.707106781186548,0.707106781186548,0.0));
#398=CARTESIAN_POINT('',(1.0,0.0,0.0));
#399=DIRECTION('',(-1.0,0.0,0.0));
#400=DIRECTION('',(0.0,1.0,0.0));
#401=DIRECTION('',(-0.707106781186548,-0.707106781186548,0.0));
#402=CARTESIAN_POINT('',(1.0,0.0,0.0));
#403=DIRECTION('',(1.0,0.0,0.0));
#404=DIRECTION('',(0.0,1.0,0.0));
#405=DIRECTION('',(-1.0,0.0,0.0));
#406=DIRECTION('',(-1.0,0.0,0.0));
ENDSEC;
END-ISO-10303-21;
