ISO-10303-21;
HEADER;
FILE_DESCRIPTION(('STEP AP214'),'1');
FILE_NAME('C:/PartsXMLTools/RobotParts/Generated/STEP_SAT/CAD/Temp/0205_42_00.stp','2016-07-07T14:23:23',('TraceParts'),('TraceParts S.A.'),'Spatial InterOp 3D',' ',' ');
FILE_SCHEMA(('automotive_design'));
ENDSEC;
DATA;
#1=PRODUCT_DEFINITION_CONTEXT('',#9,'design');
#2=APPLICATION_PROTOCOL_DEFINITION('INTERNATIONAL STANDARD','automotive_design',1994,#9);
#3=PRODUCT_CATEGORY_RELATIONSHIP('NONE','NONE',#10,#11);
#4=SHAPE_DEFINITION_REPRESENTATION(#12,#13);
#5= (GEOMETRIC_REPRESENTATION_CONTEXT(3)GLOBAL_UNCERTAINTY_ASSIGNED_CONTEXT((#16))GLOBAL_UNIT_ASSIGNED_CONTEXT((#18,#19,#20))REPRESENTATION_CONTEXT('NONE','WORKSPACE'));
#9=APPLICATION_CONTEXT(' ');
#10=PRODUCT_CATEGORY('part','NONE');
#11=PRODUCT_RELATED_PRODUCT_CATEGORY('detail',' ',(#22));
#12=PRODUCT_DEFINITION_SHAPE('NONE','NONE',#23);
#13=ADVANCED_BREP_SHAPE_REPRESENTATION('1',(#24,#25),#5);
#16=UNCERTAINTY_MEASURE_WITH_UNIT(LENGTH_MEASURE(1.0E-006),#18,'','');
#18= (CONVERSION_BASED_UNIT('MILLIMETRE',#28)LENGTH_UNIT()NAMED_UNIT(#31));
#19= (NAMED_UNIT(#33)PLANE_ANGLE_UNIT()SI_UNIT($,.RADIAN.));
#20= (NAMED_UNIT(#33)SOLID_ANGLE_UNIT()SI_UNIT($,.STERADIAN.));
#22=PRODUCT('1','1','PART-1-DESC',(#39));
#23=PRODUCT_DEFINITION('NONE','NONE',#40,#1);
#24=MANIFOLD_SOLID_BREP('1',#41);
#25=AXIS2_PLACEMENT_3D('',#42,#43,#44);
#28=LENGTH_MEASURE_WITH_UNIT(LENGTH_MEASURE(1.0),#45);
#31=DIMENSIONAL_EXPONENTS(1.0,0.0,0.0,0.0,0.0,0.0,0.0);
#33=DIMENSIONAL_EXPONENTS(0.0,0.0,0.0,0.0,0.0,0.0,0.0);
#39=PRODUCT_CONTEXT('',#9,'mechanical');
#40=PRODUCT_DEFINITION_FORMATION_WITH_SPECIFIED_SOURCE(' ','NONE',#22,.NOT_KNOWN.);
#41=CLOSED_SHELL('',(#46,#47,#48,#49,#50,#51,#52,#53,#54,#55,#56,#57,#58,#59,#60,#61,#62,#63,#64,#65,#66,#67,#68,#69));
#42=CARTESIAN_POINT('',(0.0,0.0,0.0));
#43=DIRECTION('',(0.0,0.0,1.0));
#44=DIRECTION('',(1.0,0.0,0.0));
#45= (NAMED_UNIT(#31)LENGTH_UNIT()SI_UNIT(.MILLI.,.METRE.));
#46=ADVANCED_FACE('',(#71),#72,.T.);
#47=ADVANCED_FACE('',(#73),#74,.T.);
#48=ADVANCED_FACE('',(#75),#76,.T.);
#49=ADVANCED_FACE('',(#77),#78,.T.);
#50=ADVANCED_FACE('',(#79),#80,.T.);
#51=ADVANCED_FACE('',(#81),#82,.F.);
#52=ADVANCED_FACE('',(#83),#84,.F.);
#53=ADVANCED_FACE('',(#85,#86),#87,.F.);
#54=ADVANCED_FACE('',(#88),#89,.F.);
#55=ADVANCED_FACE('',(#90),#91,.F.);
#56=ADVANCED_FACE('',(#92),#93,.F.);
#57=ADVANCED_FACE('',(#94),#95,.F.);
#58=ADVANCED_FACE('',(#96),#97,.F.);
#59=ADVANCED_FACE('',(#98),#99,.F.);
#60=ADVANCED_FACE('',(#100),#101,.T.);
#61=ADVANCED_FACE('',(#102),#103,.T.);
#62=ADVANCED_FACE('',(#104,#105),#106,.F.);
#63=ADVANCED_FACE('',(#107,#108),#109,.F.);
#64=ADVANCED_FACE('',(#110),#111,.T.);
#65=ADVANCED_FACE('',(#112),#113,.T.);
#66=ADVANCED_FACE('',(#114),#115,.T.);
#67=ADVANCED_FACE('',(#116),#117,.T.);
#68=ADVANCED_FACE('',(#118,#119),#120,.T.);
#69=ADVANCED_FACE('',(#121),#122,.T.);
#71=FACE_OUTER_BOUND('',#123,.T.);
#72=CONICAL_SURFACE('',#124,20.53178125,0.785398163397448);
#73=FACE_OUTER_BOUND('',#125,.T.);
#74=CONICAL_SURFACE('',#126,20.97375,0.0312398334302719);
#75=FACE_OUTER_BOUND('',#127,.T.);
#76=CONICAL_SURFACE('',#128,19.913609375,0.800781565178043);
#77=FACE_OUTER_BOUND('',#129,.T.);
#78=CONICAL_SURFACE('',#130,20.97375,0.0312398334302719);
#79=FACE_OUTER_BOUND('',#131,.T.);
#80=CYLINDRICAL_SURFACE('',#132,19.476);
#81=FACE_OUTER_BOUND('',#133,.T.);
#82=CYLINDRICAL_SURFACE('',#134,12.99375);
#83=FACE_OUTER_BOUND('',#135,.T.);
#84=CYLINDRICAL_SURFACE('',#136,12.99375);
#85=FACE_BOUND('',#137,.T.);
#86=FACE_OUTER_BOUND('',#138,.T.);
#87=PLANE('',#139);
#88=FACE_OUTER_BOUND('',#140,.T.);
#89=PLANE('',#141);
#90=FACE_OUTER_BOUND('',#142,.T.);
#91=PLANE('',#143);
#92=FACE_OUTER_BOUND('',#144,.T.);
#93=PLANE('',#145);
#94=FACE_OUTER_BOUND('',#146,.T.);
#95=PLANE('',#147);
#96=FACE_OUTER_BOUND('',#148,.T.);
#97=PLANE('',#149);
#98=FACE_OUTER_BOUND('',#150,.T.);
#99=PLANE('',#151);
#100=FACE_OUTER_BOUND('',#152,.T.);
#101=PLANE('',#153);
#102=FACE_OUTER_BOUND('',#154,.T.);
#103=CYLINDRICAL_SURFACE('',#155,19.476);
#104=FACE_OUTER_BOUND('',#156,.T.);
#105=FACE_BOUND('',#157,.T.);
#106=PLANE('',#158);
#107=FACE_OUTER_BOUND('',#159,.T.);
#108=FACE_BOUND('',#160,.T.);
#109=PLANE('',#161);
#110=FACE_OUTER_BOUND('',#162,.T.);
#111=CONICAL_SURFACE('',#163,20.97375,0.0312398334302719);
#112=FACE_OUTER_BOUND('',#164,.T.);
#113=CONICAL_SURFACE('',#165,19.913609375,0.800781565178043);
#114=FACE_OUTER_BOUND('',#166,.T.);
#115=CONICAL_SURFACE('',#167,20.97375,0.0312398334302719);
#116=FACE_OUTER_BOUND('',#168,.T.);
#117=CONICAL_SURFACE('',#169,20.53178125,0.785398163397448);
#118=FACE_BOUND('',#170,.T.);
#119=FACE_OUTER_BOUND('',#171,.T.);
#120=PLANE('',#172);
#121=FACE_OUTER_BOUND('',#173,.T.);
#122=PLANE('',#174);
#123=EDGE_LOOP('',(#175,#176,#177,#178));
#124=AXIS2_PLACEMENT_3D('',#179,#180,#181);
#125=EDGE_LOOP('',(#182,#183,#184,#185));
#126=AXIS2_PLACEMENT_3D('',#186,#187,#188);
#127=EDGE_LOOP('',(#189,#190,#191,#192));
#128=AXIS2_PLACEMENT_3D('',#193,#194,#195);
#129=EDGE_LOOP('',(#196,#197,#198,#199));
#130=AXIS2_PLACEMENT_3D('',#200,#201,#202);
#131=EDGE_LOOP('',(#203,#204,#205,#206));
#132=AXIS2_PLACEMENT_3D('',#207,#208,#209);
#133=EDGE_LOOP('',(#210,#211,#212,#213));
#134=AXIS2_PLACEMENT_3D('',#214,#215,#216);
#135=EDGE_LOOP('',(#217,#218,#219,#220));
#136=AXIS2_PLACEMENT_3D('',#221,#222,#223);
#137=EDGE_LOOP('',(#224,#225,#226,#227,#228,#229));
#138=EDGE_LOOP('',(#230,#231));
#139=AXIS2_PLACEMENT_3D('',#232,#233,#234);
#140=EDGE_LOOP('',(#235,#236,#237,#238));
#141=AXIS2_PLACEMENT_3D('',#239,#240,#241);
#142=EDGE_LOOP('',(#242,#243,#244,#245));
#143=AXIS2_PLACEMENT_3D('',#246,#247,#248);
#144=EDGE_LOOP('',(#249,#250,#251,#252));
#145=AXIS2_PLACEMENT_3D('',#253,#254,#255);
#146=EDGE_LOOP('',(#256,#257,#258,#259));
#147=AXIS2_PLACEMENT_3D('',#260,#261,#262);
#148=EDGE_LOOP('',(#263,#264,#265,#266));
#149=AXIS2_PLACEMENT_3D('',#267,#268,#269);
#150=EDGE_LOOP('',(#270,#271,#272,#273));
#151=AXIS2_PLACEMENT_3D('',#274,#275,#276);
#152=EDGE_LOOP('',(#277,#278));
#153=AXIS2_PLACEMENT_3D('',#279,#280,#281);
#154=EDGE_LOOP('',(#282,#283,#284,#285));
#155=AXIS2_PLACEMENT_3D('',#286,#287,#288);
#156=EDGE_LOOP('',(#289,#290));
#157=EDGE_LOOP('',(#291,#292));
#158=AXIS2_PLACEMENT_3D('',#293,#294,#295);
#159=EDGE_LOOP('',(#296,#297));
#160=EDGE_LOOP('',(#298,#299));
#161=AXIS2_PLACEMENT_3D('',#300,#301,#302);
#162=EDGE_LOOP('',(#303,#304,#305,#306));
#163=AXIS2_PLACEMENT_3D('',#307,#308,#309);
#164=EDGE_LOOP('',(#310,#311,#312,#313));
#165=AXIS2_PLACEMENT_3D('',#314,#315,#316);
#166=EDGE_LOOP('',(#317,#318,#319,#320));
#167=AXIS2_PLACEMENT_3D('',#321,#322,#323);
#168=EDGE_LOOP('',(#324,#325,#326,#327));
#169=AXIS2_PLACEMENT_3D('',#328,#329,#330);
#170=EDGE_LOOP('',(#331,#332,#333,#334,#335,#336));
#171=EDGE_LOOP('',(#337,#338));
#172=AXIS2_PLACEMENT_3D('',#339,#340,#341);
#173=EDGE_LOOP('',(#342,#343));
#174=AXIS2_PLACEMENT_3D('',#344,#345,#346);
#175=ORIENTED_EDGE('',*,*,#347,.F.);
#176=ORIENTED_EDGE('',*,*,#348,.T.);
#177=ORIENTED_EDGE('',*,*,#349,.F.);
#178=ORIENTED_EDGE('',*,*,#350,.F.);
#179=CARTESIAN_POINT('',(0.0,-0.739500000000003,0.0));
#180=DIRECTION('',(0.0,-1.0,-0.0));
#181=DIRECTION('',(1.0,0.0,0.0));
#182=ORIENTED_EDGE('',*,*,#351,.F.);
#183=ORIENTED_EDGE('',*,*,#352,.T.);
#184=ORIENTED_EDGE('',*,*,#353,.F.);
#185=ORIENTED_EDGE('',*,*,#354,.T.);
#186=CARTESIAN_POINT('',(0.0,-11.0,0.0));
#187=DIRECTION('',(-0.0,1.0,-0.0));
#188=DIRECTION('',(1.0,0.0,0.0));
#189=ORIENTED_EDGE('',*,*,#355,.F.);
#190=ORIENTED_EDGE('',*,*,#356,.T.);
#191=ORIENTED_EDGE('',*,*,#357,.F.);
#192=ORIENTED_EDGE('',*,*,#352,.F.);
#193=CARTESIAN_POINT('',(0.0,-21.2605,0.0));
#194=DIRECTION('',(-0.0,1.0,-0.0));
#195=DIRECTION('',(1.0,0.0,0.0));
#196=ORIENTED_EDGE('',*,*,#358,.F.);
#197=ORIENTED_EDGE('',*,*,#359,.T.);
#198=ORIENTED_EDGE('',*,*,#360,.F.);
#199=ORIENTED_EDGE('',*,*,#348,.F.);
#200=CARTESIAN_POINT('',(0.0,-11.0,0.0));
#201=DIRECTION('',(-0.0,1.0,-0.0));
#202=DIRECTION('',(1.0,0.0,0.0));
#203=ORIENTED_EDGE('',*,*,#361,.F.);
#204=ORIENTED_EDGE('',*,*,#362,.T.);
#205=ORIENTED_EDGE('',*,*,#363,.F.);
#206=ORIENTED_EDGE('',*,*,#364,.T.);
#207=CARTESIAN_POINT('',(0.0,-11.6,0.0));
#208=DIRECTION('',(-0.0,1.0,0.0));
#209=DIRECTION('',(1.0,0.0,0.0));
#210=ORIENTED_EDGE('',*,*,#365,.F.);
#211=ORIENTED_EDGE('',*,*,#366,.T.);
#212=ORIENTED_EDGE('',*,*,#367,.F.);
#213=ORIENTED_EDGE('',*,*,#368,.T.);
#214=CARTESIAN_POINT('',(0.0,-12.25,0.0));
#215=DIRECTION('',(-0.0,1.0,0.0));
#216=DIRECTION('',(1.0,0.0,0.0));
#217=ORIENTED_EDGE('',*,*,#365,.T.);
#218=ORIENTED_EDGE('',*,*,#369,.T.);
#219=ORIENTED_EDGE('',*,*,#367,.T.);
#220=ORIENTED_EDGE('',*,*,#370,.T.);
#221=CARTESIAN_POINT('',(0.0,-12.25,0.0));
#222=DIRECTION('',(-0.0,1.0,0.0));
#223=DIRECTION('',(1.0,0.0,0.0));
#224=ORIENTED_EDGE('',*,*,#371,.F.);
#225=ORIENTED_EDGE('',*,*,#372,.F.);
#226=ORIENTED_EDGE('',*,*,#373,.F.);
#227=ORIENTED_EDGE('',*,*,#374,.F.);
#228=ORIENTED_EDGE('',*,*,#375,.F.);
#229=ORIENTED_EDGE('',*,*,#376,.F.);
#230=ORIENTED_EDGE('',*,*,#366,.F.);
#231=ORIENTED_EDGE('',*,*,#370,.F.);
#232=CARTESIAN_POINT('',(0.0,-10.5,0.0));
#233=DIRECTION('',(-0.0,1.0,0.0));
#234=DIRECTION('',(1.0,0.0,0.0));
#235=ORIENTED_EDGE('',*,*,#374,.T.);
#236=ORIENTED_EDGE('',*,*,#377,.F.);
#237=ORIENTED_EDGE('',*,*,#378,.F.);
#238=ORIENTED_EDGE('',*,*,#379,.T.);
#239=CARTESIAN_POINT('',(-9.52627944162882,1.0,5.5));
#240=DIRECTION('',(-0.866025403784439,0.0,0.5));
#241=DIRECTION('',(-0.5,-0.0,-0.866025403784439));
#242=ORIENTED_EDGE('',*,*,#373,.T.);
#243=ORIENTED_EDGE('',*,*,#380,.F.);
#244=ORIENTED_EDGE('',*,*,#381,.F.);
#245=ORIENTED_EDGE('',*,*,#377,.T.);
#246=CARTESIAN_POINT('',(-9.52627944162882,1.0,-5.5));
#247=DIRECTION('',(-0.866025403784439,-0.0,-0.5));
#248=DIRECTION('',(0.5,0.0,-0.866025403784439));
#249=ORIENTED_EDGE('',*,*,#372,.T.);
#250=ORIENTED_EDGE('',*,*,#382,.F.);
#251=ORIENTED_EDGE('',*,*,#383,.F.);
#252=ORIENTED_EDGE('',*,*,#380,.T.);
#253=CARTESIAN_POINT('',(-2.66453525910038E-015,1.0,-11.0));
#254=DIRECTION('',(0.0,0.0,-1.0));
#255=DIRECTION('',(1.0,0.0,0.0));
#256=ORIENTED_EDGE('',*,*,#371,.T.);
#257=ORIENTED_EDGE('',*,*,#384,.F.);
#258=ORIENTED_EDGE('',*,*,#385,.F.);
#259=ORIENTED_EDGE('',*,*,#382,.T.);
#260=CARTESIAN_POINT('',(9.52627944162882,1.0,-5.5));
#261=DIRECTION('',(0.866025403784438,0.0,-0.5));
#262=DIRECTION('',(0.5,0.0,0.866025403784438));
#263=ORIENTED_EDGE('',*,*,#376,.T.);
#264=ORIENTED_EDGE('',*,*,#386,.F.);
#265=ORIENTED_EDGE('',*,*,#387,.F.);
#266=ORIENTED_EDGE('',*,*,#384,.T.);
#267=CARTESIAN_POINT('',(9.52627944162883,1.0,5.5));
#268=DIRECTION('',(0.866025403784439,0.0,0.5));
#269=DIRECTION('',(-0.5,0.0,0.866025403784439));
#270=ORIENTED_EDGE('',*,*,#375,.T.);
#271=ORIENTED_EDGE('',*,*,#379,.F.);
#272=ORIENTED_EDGE('',*,*,#388,.F.);
#273=ORIENTED_EDGE('',*,*,#386,.T.);
#274=CARTESIAN_POINT('',(3.5527136788005E-015,1.0,11.0));
#275=DIRECTION('',(2.79703663473973E-016,0.0,1.0));
#276=DIRECTION('',(-1.0,0.0,2.79703663473973E-016));
#277=ORIENTED_EDGE('',*,*,#369,.F.);
#278=ORIENTED_EDGE('',*,*,#368,.F.);
#279=CARTESIAN_POINT('',(6.72862439166762E-017,-14.0,6.66133814775094E-016));
#280=DIRECTION('',(0.0,1.0,0.0));
#281=DIRECTION('',(0.0,0.0,1.0));
#282=ORIENTED_EDGE('',*,*,#361,.T.);
#283=ORIENTED_EDGE('',*,*,#389,.T.);
#284=ORIENTED_EDGE('',*,*,#363,.T.);
#285=ORIENTED_EDGE('',*,*,#390,.T.);
#286=CARTESIAN_POINT('',(0.0,-11.6,0.0));
#287=DIRECTION('',(-0.0,1.0,0.0));
#288=DIRECTION('',(1.0,0.0,0.0));
#289=ORIENTED_EDGE('',*,*,#354,.F.);
#290=ORIENTED_EDGE('',*,*,#391,.F.);
#291=ORIENTED_EDGE('',*,*,#362,.F.);
#292=ORIENTED_EDGE('',*,*,#390,.F.);
#293=CARTESIAN_POINT('',(0.0,-11.605,0.0));
#294=DIRECTION('',(0.0,-1.0,0.0));
#295=DIRECTION('',(-1.0,0.0,0.0));
#296=ORIENTED_EDGE('',*,*,#392,.F.);
#297=ORIENTED_EDGE('',*,*,#359,.F.);
#298=ORIENTED_EDGE('',*,*,#389,.F.);
#299=ORIENTED_EDGE('',*,*,#364,.F.);
#300=CARTESIAN_POINT('',(0.0,-11.595,0.0));
#301=DIRECTION('',(-0.0,1.0,0.0));
#302=DIRECTION('',(1.0,0.0,0.0));
#303=ORIENTED_EDGE('',*,*,#358,.T.);
#304=ORIENTED_EDGE('',*,*,#393,.F.);
#305=ORIENTED_EDGE('',*,*,#360,.T.);
#306=ORIENTED_EDGE('',*,*,#392,.T.);
#307=CARTESIAN_POINT('',(0.0,-11.0,0.0));
#308=DIRECTION('',(-0.0,1.0,-0.0));
#309=DIRECTION('',(1.0,0.0,0.0));
#310=ORIENTED_EDGE('',*,*,#355,.T.);
#311=ORIENTED_EDGE('',*,*,#394,.F.);
#312=ORIENTED_EDGE('',*,*,#357,.T.);
#313=ORIENTED_EDGE('',*,*,#395,.T.);
#314=CARTESIAN_POINT('',(0.0,-21.2605,0.0));
#315=DIRECTION('',(-0.0,1.0,-0.0));
#316=DIRECTION('',(1.0,0.0,0.0));
#317=ORIENTED_EDGE('',*,*,#351,.T.);
#318=ORIENTED_EDGE('',*,*,#391,.T.);
#319=ORIENTED_EDGE('',*,*,#353,.T.);
#320=ORIENTED_EDGE('',*,*,#394,.T.);
#321=CARTESIAN_POINT('',(0.0,-11.0,0.0));
#322=DIRECTION('',(-0.0,1.0,-0.0));
#323=DIRECTION('',(1.0,0.0,0.0));
#324=ORIENTED_EDGE('',*,*,#347,.T.);
#325=ORIENTED_EDGE('',*,*,#396,.F.);
#326=ORIENTED_EDGE('',*,*,#349,.T.);
#327=ORIENTED_EDGE('',*,*,#393,.T.);
#328=CARTESIAN_POINT('',(0.0,-0.739500000000003,0.0));
#329=DIRECTION('',(0.0,-1.0,-0.0));
#330=DIRECTION('',(1.0,0.0,0.0));
#331=ORIENTED_EDGE('',*,*,#378,.T.);
#332=ORIENTED_EDGE('',*,*,#381,.T.);
#333=ORIENTED_EDGE('',*,*,#383,.T.);
#334=ORIENTED_EDGE('',*,*,#385,.T.);
#335=ORIENTED_EDGE('',*,*,#387,.T.);
#336=ORIENTED_EDGE('',*,*,#388,.T.);
#337=ORIENTED_EDGE('',*,*,#350,.T.);
#338=ORIENTED_EDGE('',*,*,#396,.T.);
#339=CARTESIAN_POINT('',(9.896140625,0.0,0.0));
#340=DIRECTION('',(1.79499959298552E-016,1.0,0.0));
#341=DIRECTION('',(1.0,-1.79499959298552E-016,0.0));
#342=ORIENTED_EDGE('',*,*,#356,.F.);
#343=ORIENTED_EDGE('',*,*,#395,.F.);
#344=CARTESIAN_POINT('',(9.5755,-22.0,0.0));
#345=DIRECTION('',(-0.0,-1.0,-0.0));
#346=DIRECTION('',(-1.0,0.0,0.0));
#347=EDGE_CURVE('',#397,#398,#399,.T.);
#348=EDGE_CURVE('',#397,#400,#401,.T.);
#349=EDGE_CURVE('',#402,#400,#403,.T.);
#350=EDGE_CURVE('',#398,#402,#404,.T.);
#351=EDGE_CURVE('',#405,#406,#407,.T.);
#352=EDGE_CURVE('',#405,#408,#409,.T.);
#353=EDGE_CURVE('',#410,#408,#411,.T.);
#354=EDGE_CURVE('',#410,#406,#412,.T.);
#355=EDGE_CURVE('',#413,#405,#414,.T.);
#356=EDGE_CURVE('',#413,#415,#416,.T.);
#357=EDGE_CURVE('',#408,#415,#417,.T.);
#358=EDGE_CURVE('',#418,#397,#419,.T.);
#359=EDGE_CURVE('',#418,#420,#421,.T.);
#360=EDGE_CURVE('',#400,#420,#422,.T.);
#361=EDGE_CURVE('',#423,#424,#425,.T.);
#362=EDGE_CURVE('',#423,#426,#427,.T.);
#363=EDGE_CURVE('',#428,#426,#429,.T.);
#364=EDGE_CURVE('',#428,#424,#430,.T.);
#365=EDGE_CURVE('',#431,#432,#433,.T.);
#366=EDGE_CURVE('',#431,#434,#435,.T.);
#367=EDGE_CURVE('',#436,#434,#437,.T.);
#368=EDGE_CURVE('',#436,#432,#438,.T.);
#369=EDGE_CURVE('',#432,#436,#439,.T.);
#370=EDGE_CURVE('',#434,#431,#440,.T.);
#371=EDGE_CURVE('',#441,#442,#443,.T.);
#372=EDGE_CURVE('',#444,#441,#445,.T.);
#373=EDGE_CURVE('',#446,#444,#447,.T.);
#374=EDGE_CURVE('',#448,#446,#449,.T.);
#375=EDGE_CURVE('',#450,#448,#451,.T.);
#376=EDGE_CURVE('',#442,#450,#452,.T.);
#377=EDGE_CURVE('',#453,#446,#454,.T.);
#378=EDGE_CURVE('',#455,#453,#456,.T.);
#379=EDGE_CURVE('',#455,#448,#457,.T.);
#380=EDGE_CURVE('',#458,#444,#459,.T.);
#381=EDGE_CURVE('',#453,#458,#460,.T.);
#382=EDGE_CURVE('',#461,#441,#462,.T.);
#383=EDGE_CURVE('',#458,#461,#463,.T.);
#384=EDGE_CURVE('',#464,#442,#465,.T.);
#385=EDGE_CURVE('',#461,#464,#466,.T.);
#386=EDGE_CURVE('',#467,#450,#468,.T.);
#387=EDGE_CURVE('',#464,#467,#469,.T.);
#388=EDGE_CURVE('',#467,#455,#470,.T.);
#389=EDGE_CURVE('',#424,#428,#471,.T.);
#390=EDGE_CURVE('',#426,#423,#472,.T.);
#391=EDGE_CURVE('',#406,#410,#473,.T.);
#392=EDGE_CURVE('',#420,#418,#474,.T.);
#393=EDGE_CURVE('',#400,#397,#475,.T.);
#394=EDGE_CURVE('',#408,#405,#476,.T.);
#395=EDGE_CURVE('',#415,#413,#477,.T.);
#396=EDGE_CURVE('',#402,#398,#478,.T.);
#397=VERTEX_POINT('',#479);
#398=VERTEX_POINT('',#480);
#399=LINE('',#481,#482);
#400=VERTEX_POINT('',#483);
#401=CIRCLE('',#484,21.27128125);
#402=VERTEX_POINT('',#485);
#403=LINE('',#486,#487);
#404=CIRCLE('',#488,19.79228125);
#405=VERTEX_POINT('',#489);
#406=VERTEX_POINT('',#490);
#407=LINE('',#491,#492);
#408=VERTEX_POINT('',#493);
#409=CIRCLE('',#494,20.67621875);
#410=VERTEX_POINT('',#495);
#411=LINE('',#496,#497);
#412=CIRCLE('',#498,20.95484375);
#413=VERTEX_POINT('',#499);
#414=LINE('',#500,#501);
#415=VERTEX_POINT('',#502);
#416=CIRCLE('',#503,19.151);
#417=LINE('',#504,#505);
#418=VERTEX_POINT('',#506);
#419=LINE('',#507,#508);
#420=VERTEX_POINT('',#509);
#421=CIRCLE('',#510,20.95515625);
#422=LINE('',#511,#512);
#423=VERTEX_POINT('',#513);
#424=VERTEX_POINT('',#514);
#425=LINE('',#515,#516);
#426=VERTEX_POINT('',#517);
#427=CIRCLE('',#518,19.476);
#428=VERTEX_POINT('',#519);
#429=LINE('',#520,#521);
#430=CIRCLE('',#522,19.476);
#431=VERTEX_POINT('',#523);
#432=VERTEX_POINT('',#524);
#433=LINE('',#525,#526);
#434=VERTEX_POINT('',#527);
#435=CIRCLE('',#528,12.99375);
#436=VERTEX_POINT('',#529);
#437=LINE('',#530,#531);
#438=CIRCLE('',#532,12.99375);
#439=CIRCLE('',#533,12.99375);
#440=CIRCLE('',#534,12.99375);
#441=VERTEX_POINT('',#535);
#442=VERTEX_POINT('',#536);
#443=LINE('',#537,#538);
#444=VERTEX_POINT('',#539);
#445=LINE('',#540,#541);
#446=VERTEX_POINT('',#542);
#447=LINE('',#543,#544);
#448=VERTEX_POINT('',#545);
#449=LINE('',#546,#547);
#450=VERTEX_POINT('',#548);
#451=LINE('',#549,#550);
#452=LINE('',#551,#552);
#453=VERTEX_POINT('',#553);
#454=LINE('',#554,#555);
#455=VERTEX_POINT('',#556);
#456=LINE('',#557,#558);
#457=LINE('',#559,#560);
#458=VERTEX_POINT('',#561);
#459=LINE('',#562,#563);
#460=LINE('',#564,#565);
#461=VERTEX_POINT('',#566);
#462=LINE('',#567,#568);
#463=LINE('',#569,#570);
#464=VERTEX_POINT('',#571);
#465=LINE('',#572,#573);
#466=LINE('',#574,#575);
#467=VERTEX_POINT('',#576);
#468=LINE('',#577,#578);
#469=LINE('',#579,#580);
#470=LINE('',#581,#582);
#471=CIRCLE('',#583,19.476);
#472=CIRCLE('',#584,19.476);
#473=CIRCLE('',#585,20.95484375);
#474=CIRCLE('',#586,20.95515625);
#475=CIRCLE('',#587,21.27128125);
#476=CIRCLE('',#588,20.67621875);
#477=CIRCLE('',#589,19.151);
#478=CIRCLE('',#590,19.79228125);
#479=CARTESIAN_POINT('',(21.27128125,-1.479,0.0));
#480=CARTESIAN_POINT('',(19.79228125,-3.5527136788005E-015,0.0));
#481=CARTESIAN_POINT('',(20.53178125,-0.739500000000003,2.51433497740412E-015));
#482=VECTOR('',#591,1.0);
#483=CARTESIAN_POINT('',(-21.27128125,-1.479,-2.60489461726928E-015));
#484=AXIS2_PLACEMENT_3D('',#592,#593,#594);
#485=CARTESIAN_POINT('',(-19.79228125,-3.5527136788005E-015,-2.42377533753895E-015));
#486=CARTESIAN_POINT('',(-20.53178125,-0.739500000000003,-2.51433497740412E-015));
#487=VECTOR('',#595,1.0);
#488=AXIS2_PLACEMENT_3D('',#596,#597,#598);
#489=CARTESIAN_POINT('',(20.67621875,-20.521,0.0));
#490=CARTESIAN_POINT('',(20.95484375,-11.605,2.56614347996051E-015));
#491=CARTESIAN_POINT('',(20.97375,-11.0,2.56845875134821E-015));
#492=VECTOR('',#599,1.0);
#493=CARTESIAN_POINT('',(-20.67621875,-20.521,-2.53202288542714E-015));
#494=AXIS2_PLACEMENT_3D('',#600,#601,#602);
#495=CARTESIAN_POINT('',(-20.95484375,-11.605,-2.56614347996051E-015));
#496=CARTESIAN_POINT('',(-20.97375,-11.0,-2.56845875134821E-015));
#497=VECTOR('',#603,1.0);
#498=AXIS2_PLACEMENT_3D('',#604,#605,#606);
#499=CARTESIAN_POINT('',(19.151,-22.0,0.0));
#500=CARTESIAN_POINT('',(19.913609375,-21.2605,2.43863325681619E-015));
#501=VECTOR('',#607,1.0);
#502=CARTESIAN_POINT('',(-19.151,-22.0,-2.34524362820523E-015));
#503=AXIS2_PLACEMENT_3D('',#608,#609,#610);
#504=CARTESIAN_POINT('',(-19.913609375,-21.2605,-2.43863325681619E-015));
#505=VECTOR('',#611,1.0);
#506=CARTESIAN_POINT('',(20.95515625,-11.595,2.56618174890907E-015));
#507=CARTESIAN_POINT('',(20.97375,-11.0,2.56845875134821E-015));
#508=VECTOR('',#612,1.0);
#509=CARTESIAN_POINT('',(-20.95515625,-11.595,2.56618174890907E-015));
#510=AXIS2_PLACEMENT_3D('',#613,#614,#615);
#511=CARTESIAN_POINT('',(-20.97375,-11.0,-2.56845875134821E-015));
#512=VECTOR('',#616,1.0);
#513=CARTESIAN_POINT('',(19.476,-11.605,0.0));
#514=CARTESIAN_POINT('',(19.476,-11.595,0.0));
#515=CARTESIAN_POINT('',(19.476,-11.6,2.38504333470446E-015));
#516=VECTOR('',#617,1.0);
#517=CARTESIAN_POINT('',(-19.476,-11.605,-2.38504333470446E-015));
#518=AXIS2_PLACEMENT_3D('',#618,#619,#620);
#519=CARTESIAN_POINT('',(-19.476,-11.595,-2.38504333470446E-015));
#520=CARTESIAN_POINT('',(-19.476,-11.6,-2.38504333470446E-015));
#521=VECTOR('',#621,1.0);
#522=AXIS2_PLACEMENT_3D('',#622,#623,#624);
#523=CARTESIAN_POINT('',(12.99375,-10.5,0.0));
#524=CARTESIAN_POINT('',(12.99375,-14.0,0.0));
#525=CARTESIAN_POINT('',(12.99375,-12.25,1.59122288099795E-015));
#526=VECTOR('',#625,1.0);
#527=CARTESIAN_POINT('',(-12.99375,-10.5,-1.59122288099795E-015));
#528=AXIS2_PLACEMENT_3D('',#626,#627,#628);
#529=CARTESIAN_POINT('',(-12.99375,-14.0,-1.59122288099795E-015));
#530=CARTESIAN_POINT('',(-12.99375,-12.25,-1.59122288099795E-015));
#531=VECTOR('',#629,1.0);
#532=AXIS2_PLACEMENT_3D('',#630,#631,#632);
#533=AXIS2_PLACEMENT_3D('',#633,#634,#635);
#534=AXIS2_PLACEMENT_3D('',#636,#637,#638);
#535=CARTESIAN_POINT('',(6.35085296108588,-10.5,-11.0));
#536=CARTESIAN_POINT('',(12.7017059221718,-10.5,-2.33321415273242E-015));
#537=CARTESIAN_POINT('',(9.52627944162882,-10.5,-5.5));
#538=VECTOR('',#639,1.0);
#539=CARTESIAN_POINT('',(-6.35085296108588,-10.5,-11.0));
#540=CARTESIAN_POINT('',(-1.33226762955019E-015,-10.5,-11.0));
#541=VECTOR('',#640,1.0);
#542=CARTESIAN_POINT('',(-12.7017059221718,-10.5,7.77755175064932E-016));
#543=CARTESIAN_POINT('',(-9.52627944162882,-10.5,-5.5));
#544=VECTOR('',#641,1.0);
#545=CARTESIAN_POINT('',(-6.35085296108588,-10.5,11.0));
#546=CARTESIAN_POINT('',(-9.52627944162882,-10.5,5.5));
#547=VECTOR('',#642,1.0);
#548=CARTESIAN_POINT('',(6.35085296108589,-10.5,11.0));
#549=CARTESIAN_POINT('',(3.3147269885071E-015,-10.5,11.0));
#550=VECTOR('',#643,1.0);
#551=CARTESIAN_POINT('',(9.52627944162883,-10.5,5.5));
#552=VECTOR('',#644,1.0);
#553=CARTESIAN_POINT('',(-12.7017059221718,4.10782519111308E-015,7.77755175064932E-016));
#554=CARTESIAN_POINT('',(-12.7017059221718,1.0,7.77755175064932E-016));
#555=VECTOR('',#645,1.0);
#556=CARTESIAN_POINT('',(-6.35085296108588,2.88657986402541E-015,11.0));
#557=CARTESIAN_POINT('',(-8.28926186350382,3.27515792264421E-015,7.6425772951683));
#558=VECTOR('',#646,1.0);
#559=CARTESIAN_POINT('',(-6.35085296108588,1.0,11.0));
#560=VECTOR('',#647,1.0);
#561=CARTESIAN_POINT('',(-6.35085296108588,2.88657986402541E-015,-11.0));
#562=CARTESIAN_POINT('',(-6.35085296108588,1.0,-11.0));
#563=VECTOR('',#648,1.0);
#564=CARTESIAN_POINT('',(-8.28926186350382,3.21964677141295E-015,-7.6425772951683));
#565=VECTOR('',#649,1.0);
#566=CARTESIAN_POINT('',(6.35085296108588,6.66133814775094E-016,-11.0));
#567=CARTESIAN_POINT('',(6.35085296108588,1.0,-11.0));
#568=VECTOR('',#650,1.0);
#569=CARTESIAN_POINT('',(4.9480703125,8.88178419700125E-016,-11.0));
#570=VECTOR('',#651,1.0);
#571=CARTESIAN_POINT('',(12.7017059221718,-4.44089209850063E-016,-2.33321415273242E-015));
#572=CARTESIAN_POINT('',(12.7017059221718,1.0,-2.33321415273242E-015));
#573=VECTOR('',#652,1.0);
#574=CARTESIAN_POINT('',(10.7632970197538,-1.11022302462516E-016,-3.3574227048317));
#575=VECTOR('',#653,1.0);
#576=CARTESIAN_POINT('',(6.35085296108589,6.66133814775094E-016,11.0));
#577=CARTESIAN_POINT('',(6.35085296108589,1.0,11.0));
#578=VECTOR('',#654,1.0);
#579=CARTESIAN_POINT('',(10.7632970197538,-1.11022302462516E-016,3.35742270483169));
#580=VECTOR('',#655,1.0);
#581=CARTESIAN_POINT('',(4.9480703125,8.88178419700125E-016,11.0));
#582=VECTOR('',#656,1.0);
#583=AXIS2_PLACEMENT_3D('',#657,#658,#659);
#584=AXIS2_PLACEMENT_3D('',#660,#661,#662);
#585=AXIS2_PLACEMENT_3D('',#663,#664,#665);
#586=AXIS2_PLACEMENT_3D('',#666,#667,#668);
#587=AXIS2_PLACEMENT_3D('',#669,#670,#671);
#588=AXIS2_PLACEMENT_3D('',#672,#673,#674);
#589=AXIS2_PLACEMENT_3D('',#675,#676,#677);
#590=AXIS2_PLACEMENT_3D('',#678,#679,#680);
#591=DIRECTION('',(-0.707106781186548,0.707106781186547,-8.65927457071936E-017));
#592=CARTESIAN_POINT('',(0.0,-1.479,0.0));
#593=DIRECTION('',(-0.0,1.0,0.0));
#594=DIRECTION('',(1.0,0.0,0.0));
#595=DIRECTION('',(-0.707106781186548,-0.707106781186547,-8.65927457071936E-017));
#596=CARTESIAN_POINT('',(0.0,-3.5527136788005E-015,0.0));
#597=DIRECTION('',(-0.0,1.0,0.0));
#598=DIRECTION('',(1.0,0.0,0.0));
#599=DIRECTION('',(0.0312347523777213,0.999512076087079,3.82502762218261E-018));
#600=CARTESIAN_POINT('',(0.0,-20.521,0.0));
#601=DIRECTION('',(-0.0,1.0,0.0));
#602=DIRECTION('',(1.0,0.0,0.0));
#603=DIRECTION('',(0.0312347523777213,-0.999512076087079,3.82502762218261E-018));
#604=CARTESIAN_POINT('',(0.0,-11.605,0.0));
#605=DIRECTION('',(0.0,-1.0,0.0));
#606=DIRECTION('',(1.0,0.0,0.0));
#607=DIRECTION('',(0.717900393451054,0.696145836073751,8.79145383231746E-017));
#608=CARTESIAN_POINT('',(0.0,-22.0,0.0));
#609=DIRECTION('',(-0.0,1.0,0.0));
#610=DIRECTION('',(1.0,0.0,0.0));
#611=DIRECTION('',(0.717900393451054,-0.696145836073751,8.79145383231746E-017));
#612=DIRECTION('',(0.0312347523777213,0.999512076087079,3.82502762218261E-018));
#613=CARTESIAN_POINT('',(0.0,-11.595,0.0));
#614=DIRECTION('',(-0.0,1.0,0.0));
#615=DIRECTION('',(1.0,0.0,0.0));
#616=DIRECTION('',(0.0312347523777213,-0.999512076087079,3.82502762218261E-018));
#617=DIRECTION('',(0.0,1.0,0.0));
#618=CARTESIAN_POINT('',(0.0,-11.605,0.0));
#619=DIRECTION('',(-0.0,1.0,0.0));
#620=DIRECTION('',(1.0,0.0,0.0));
#621=DIRECTION('',(-0.0,-1.0,-0.0));
#622=CARTESIAN_POINT('',(0.0,-11.595,0.0));
#623=DIRECTION('',(0.0,-1.0,0.0));
#624=DIRECTION('',(1.0,0.0,0.0));
#625=DIRECTION('',(-0.0,-1.0,-0.0));
#626=CARTESIAN_POINT('',(0.0,-10.5,0.0));
#627=DIRECTION('',(-0.0,1.0,0.0));
#628=DIRECTION('',(1.0,0.0,0.0));
#629=DIRECTION('',(-0.0,1.0,-0.0));
#630=CARTESIAN_POINT('',(0.0,-14.0,0.0));
#631=DIRECTION('',(0.0,-1.0,0.0));
#632=DIRECTION('',(1.0,0.0,0.0));
#633=CARTESIAN_POINT('',(0.0,-14.0,0.0));
#634=DIRECTION('',(0.0,-1.0,0.0));
#635=DIRECTION('',(1.0,0.0,0.0));
#636=CARTESIAN_POINT('',(0.0,-10.5,0.0));
#637=DIRECTION('',(-0.0,1.0,0.0));
#638=DIRECTION('',(1.0,0.0,0.0));
#639=DIRECTION('',(0.5,-0.0,0.866025403784438));
#640=DIRECTION('',(1.0,-0.0,0.0));
#641=DIRECTION('',(0.5,0.0,-0.866025403784439));
#642=DIRECTION('',(-0.5,0.0,-0.866025403784439));
#643=DIRECTION('',(-1.0,0.0,2.79703663473973E-016));
#644=DIRECTION('',(-0.5,0.0,0.866025403784439));
#645=DIRECTION('',(0.0,-1.0,0.0));
#646=DIRECTION('',(-0.5,8.97499796492762E-017,-0.866025403784439));
#647=DIRECTION('',(0.0,-1.0,0.0));
#648=DIRECTION('',(0.0,-1.0,0.0));
#649=DIRECTION('',(0.5,-8.97499796492762E-017,-0.866025403784439));
#650=DIRECTION('',(0.0,-1.0,0.0));
#651=DIRECTION('',(1.0,-1.79499959298552E-016,0.0));
#652=DIRECTION('',(0.0,-1.0,0.0));
#653=DIRECTION('',(0.5,-8.97499796492762E-017,0.866025403784438));
#654=DIRECTION('',(0.0,-1.0,0.0));
#655=DIRECTION('',(-0.5,8.97499796492761E-017,0.866025403784439));
#656=DIRECTION('',(-1.0,1.79499959298552E-016,2.79703663473973E-016));
#657=CARTESIAN_POINT('',(0.0,-11.595,0.0));
#658=DIRECTION('',(0.0,-1.0,0.0));
#659=DIRECTION('',(1.0,0.0,0.0));
#660=CARTESIAN_POINT('',(0.0,-11.605,0.0));
#661=DIRECTION('',(-0.0,1.0,0.0));
#662=DIRECTION('',(1.0,0.0,0.0));
#663=CARTESIAN_POINT('',(0.0,-11.605,0.0));
#664=DIRECTION('',(0.0,-1.0,0.0));
#665=DIRECTION('',(1.0,0.0,0.0));
#666=CARTESIAN_POINT('',(0.0,-11.595,0.0));
#667=DIRECTION('',(-0.0,1.0,0.0));
#668=DIRECTION('',(1.0,0.0,0.0));
#669=CARTESIAN_POINT('',(0.0,-1.479,0.0));
#670=DIRECTION('',(-0.0,1.0,0.0));
#671=DIRECTION('',(1.0,0.0,0.0));
#672=CARTESIAN_POINT('',(0.0,-20.521,0.0));
#673=DIRECTION('',(-0.0,1.0,0.0));
#674=DIRECTION('',(1.0,0.0,0.0));
#675=CARTESIAN_POINT('',(0.0,-22.0,0.0));
#676=DIRECTION('',(-0.0,1.0,0.0));
#677=DIRECTION('',(1.0,0.0,0.0));
#678=CARTESIAN_POINT('',(0.0,-3.5527136788005E-015,0.0));
#679=DIRECTION('',(-0.0,1.0,0.0));
#680=DIRECTION('',(1.0,0.0,0.0));
ENDSEC;
END-ISO-10303-21;
