ISO-10303-21;
HEADER;
/****************************************************************
 * Generated by software with PDE/Lib inside                    *
 * PDElib Version v51a, created Thu 01/14/2010                  *
 * ITI Transcendata (http://www.transcendata.com/)              *
 ****************************************************************/
FILE_DESCRIPTION((''),'2;1');
FILE_NAME('J:\\3D Zeichnungen_step\\Serie 28\\28sstf19sxn.stp','2012-02-27T09:37:28',('IA176480'),(''),'Autodesk Inventor 2011','Autodesk Inventor 2011','');
FILE_SCHEMA(('AUTOMOTIVE_DESIGN { 1 0 10303 214 1 1 1 1 }'));
ENDSEC;
DATA;
#5=APPLICATION_CONTEXT('automotive design');
#6=APPLICATION_PROTOCOL_DEFINITION('International Standard','automotive_design',2001,#5);
#7=PRODUCT_CONTEXT('',#5,'mechanical');
#8=PRODUCT('D103042','D103042',$,(#7));
#9=PRODUCT_RELATED_PRODUCT_CATEGORY('part',$,(#8));
#10=PRODUCT_DEFINITION_FORMATION('',$,#8);
#11=PRODUCT_DEFINITION_CONTEXT('part definition',#5,'design');
#12=PRODUCT_DEFINITION('',$,#10,#11);
#18=(NAMED_UNIT(*)PLANE_ANGLE_UNIT()SI_UNIT($,.RADIAN.));
#19=DIMENSIONAL_EXPONENTS(0.0,0.0,0.0,0.0,0.0,0.0,0.0);
#20=PLANE_ANGLE_MEASURE_WITH_UNIT(PLANE_ANGLE_MEASURE(0.017453292500000),#18);
#24=(CONVERSION_BASED_UNIT('DEGREE',#20)NAMED_UNIT(#19)PLANE_ANGLE_UNIT());
#28=(NAMED_UNIT(*)SI_UNIT($,.STERADIAN.)SOLID_ANGLE_UNIT());
#32=(LENGTH_UNIT()NAMED_UNIT(*)SI_UNIT(.MILLI.,.METRE.));
#34=UNCERTAINTY_MEASURE_WITH_UNIT(LENGTH_MEASURE(0.010000000000000),#32,'DISTANCE_ACCURACY_VALUE','');
#36=(GEOMETRIC_REPRESENTATION_CONTEXT(3)GLOBAL_UNCERTAINTY_ASSIGNED_CONTEXT((#34))GLOBAL_UNIT_ASSIGNED_CONTEXT((#24,#28,#32))REPRESENTATION_CONTEXT('None','None'));
#37=AXIS2_PLACEMENT_3D('',#38,#39,#40);
#38=CARTESIAN_POINT('',(0.0,0.0,0.0));
#39=DIRECTION('',(0.0,0.0,1.0));
#40=DIRECTION('',(1.0,0.0,0.0));
#41=SHAPE_REPRESENTATION('',(#37),#36);
#42=PRODUCT_DEFINITION_SHAPE('','',#12);
#43=SHAPE_DEFINITION_REPRESENTATION(#42,#41);
#49=(NAMED_UNIT(*)PLANE_ANGLE_UNIT()SI_UNIT($,.RADIAN.));
#50=DIMENSIONAL_EXPONENTS(0.0,0.0,0.0,0.0,0.0,0.0,0.0);
#51=PLANE_ANGLE_MEASURE_WITH_UNIT(PLANE_ANGLE_MEASURE(0.017453292500000),#49);
#55=(CONVERSION_BASED_UNIT('DEGREE',#51)NAMED_UNIT(#50)PLANE_ANGLE_UNIT());
#59=(NAMED_UNIT(*)SI_UNIT($,.STERADIAN.)SOLID_ANGLE_UNIT());
#63=(LENGTH_UNIT()NAMED_UNIT(*)SI_UNIT(.MILLI.,.METRE.));
#65=UNCERTAINTY_MEASURE_WITH_UNIT(LENGTH_MEASURE(0.000001000000000),#63,'DISTANCE_ACCURACY_VALUE','');
#67=(GEOMETRIC_REPRESENTATION_CONTEXT(3)GLOBAL_UNCERTAINTY_ASSIGNED_CONTEXT((#65))GLOBAL_UNIT_ASSIGNED_CONTEXT((#55,#59,#63))REPRESENTATION_CONTEXT('','3D'));
#68=CARTESIAN_POINT('',(0.400000000000000,0.0,0.0));
#69=DIRECTION('',(1.0,0.0,0.0));
#70=DIRECTION('',(0.0,0.0,-1.0));
#71=AXIS2_PLACEMENT_3D('',#68,#69,#70);
#72=TOROIDAL_SURFACE('',#71,5.769059892324151,0.400000000000000);
#73=CARTESIAN_POINT('',(0.0,5.769059892324151,0.0));
#74=VERTEX_POINT('',#73);
#75=CARTESIAN_POINT('',(0.0,0.0,0.0));
#76=DIRECTION('',(1.0,0.0,0.0));
#77=DIRECTION('',(0.0,-1.0,0.0));
#78=AXIS2_PLACEMENT_3D('',#75,#76,#77);
#79=CIRCLE('',#78,5.769059892324151);
#80=EDGE_CURVE('',#74,#74,#79,.T.);
#81=ORIENTED_EDGE('',*,*,#80,.T.);
#82=EDGE_LOOP('',(#81));
#83=FACE_OUTER_BOUND('',#82,.T.);
#84=CARTESIAN_POINT('',(0.200000000000000,6.115470053837926,-1.497858E-015));
#85=VERTEX_POINT('',#84);
#86=CARTESIAN_POINT('',(0.200000000000000,0.0,-7.489291E-016));
#87=DIRECTION('',(-1.0,0.0,0.0));
#88=DIRECTION('',(0.0,-1.0,0.0));
#89=AXIS2_PLACEMENT_3D('',#86,#87,#88);
#90=CIRCLE('',#89,6.115470053837926);
#91=EDGE_CURVE('',#85,#85,#90,.T.);
#92=ORIENTED_EDGE('',*,*,#91,.T.);
#93=EDGE_LOOP('',(#92));
#94=FACE_BOUND('',#93,.T.);
#95=ADVANCED_FACE('',(#83,#94),#72,.T.);
#96=CARTESIAN_POINT('',(0.433012701892217,0.0,0.0));
#97=DIRECTION('',(1.0,0.0,0.0));
#98=DIRECTION('',(0.0,1.0,0.0));
#99=AXIS2_PLACEMENT_3D('',#96,#97,#98);
#100=CONICAL_SURFACE('',#99,6.250000000000000,30.000000000000036);
#101=CARTESIAN_POINT('',(0.866025403784434,6.499999999999999,0.0));
#102=VERTEX_POINT('',#101);
#103=CARTESIAN_POINT('',(0.866025403784434,0.0,0.0));
#104=DIRECTION('',(1.0,0.0,0.0));
#105=DIRECTION('',(0.0,1.0,0.0));
#106=AXIS2_PLACEMENT_3D('',#103,#104,#105);
#107=CIRCLE('',#106,6.499999999999999);
#108=EDGE_CURVE('',#102,#102,#107,.T.);
#109=ORIENTED_EDGE('',*,*,#108,.F.);
#110=EDGE_LOOP('',(#109));
#111=FACE_OUTER_BOUND('',#110,.T.);
#112=ORIENTED_EDGE('',*,*,#91,.F.);
#113=EDGE_LOOP('',(#112));
#114=FACE_BOUND('',#113,.T.);
#115=ADVANCED_FACE('',(#111,#114),#100,.T.);
#116=CARTESIAN_POINT('',(0.0,5.624999999999996,0.0));
#117=DIRECTION('',(-1.0,0.0,0.0));
#118=DIRECTION('',(0.0,0.0,1.0));
#119=AXIS2_PLACEMENT_3D('',#116,#117,#118);
#120=PLANE('',#119);
#121=ORIENTED_EDGE('',*,*,#80,.F.);
#122=EDGE_LOOP('',(#121));
#123=FACE_OUTER_BOUND('',#122,.T.);
#124=CARTESIAN_POINT('',(0.0,5.249999999999993,0.0));
#125=VERTEX_POINT('',#124);
#126=CARTESIAN_POINT('',(0.0,0.0,0.0));
#127=DIRECTION('',(1.0,0.0,0.0));
#128=DIRECTION('',(0.0,1.0,0.0));
#129=AXIS2_PLACEMENT_3D('',#126,#127,#128);
#130=CIRCLE('',#129,5.249999999999993);
#131=EDGE_CURVE('',#125,#125,#130,.T.);
#132=ORIENTED_EDGE('',*,*,#131,.T.);
#133=EDGE_LOOP('',(#132));
#134=FACE_BOUND('',#133,.T.);
#135=ADVANCED_FACE('',(#123,#134),#120,.T.);
#136=CARTESIAN_POINT('',(26.500000000000004,0.0,0.0));
#137=DIRECTION('',(1.0,0.0,0.0));
#138=DIRECTION('',(0.0,0.0,-1.0));
#139=AXIS2_PLACEMENT_3D('',#136,#137,#138);
#140=TOROIDAL_SURFACE('',#139,8.0,0.500000000000000);
#141=CARTESIAN_POINT('',(26.500000000000004,7.500000000000000,0.0));
#142=VERTEX_POINT('',#141);
#143=CARTESIAN_POINT('',(26.500000000000004,0.0,0.0));
#144=DIRECTION('',(1.0,0.0,0.0));
#145=DIRECTION('',(0.0,-1.0,0.0));
#146=AXIS2_PLACEMENT_3D('',#143,#144,#145);
#147=CIRCLE('',#146,7.500000000000000);
#148=EDGE_CURVE('',#142,#142,#147,.T.);
#149=ORIENTED_EDGE('',*,*,#148,.T.);
#150=EDGE_LOOP('',(#149));
#151=FACE_OUTER_BOUND('',#150,.T.);
#152=CARTESIAN_POINT('',(27.0,8.0,-1.959435E-015));
#153=VERTEX_POINT('',#152);
#154=CARTESIAN_POINT('',(27.0,0.0,0.0));
#155=DIRECTION('',(-1.0,0.0,0.0));
#156=DIRECTION('',(0.0,-1.0,0.0));
#157=AXIS2_PLACEMENT_3D('',#154,#155,#156);
#158=CIRCLE('',#157,8.0);
#159=EDGE_CURVE('',#153,#153,#158,.T.);
#160=ORIENTED_EDGE('',*,*,#159,.T.);
#161=EDGE_LOOP('',(#160));
#162=FACE_BOUND('',#161,.T.);
#163=ADVANCED_FACE('',(#151,#162),#140,.F.);
#164=CARTESIAN_POINT('',(23.075000000000003,0.0,0.0));
#165=DIRECTION('',(1.0,0.0,0.0));
#166=DIRECTION('',(0.0,1.0,0.0));
#167=AXIS2_PLACEMENT_3D('',#164,#165,#166);
#168=CYLINDRICAL_SURFACE('',#167,7.500000000000000);
#169=CARTESIAN_POINT('',(19.149999999999999,7.499999999999999,0.0));
#170=VERTEX_POINT('',#169);
#171=CARTESIAN_POINT('',(19.149999999999999,0.0,0.0));
#172=DIRECTION('',(1.0,0.0,0.0));
#173=DIRECTION('',(0.0,1.0,0.0));
#174=AXIS2_PLACEMENT_3D('',#171,#172,#173);
#175=CIRCLE('',#174,7.499999999999999);
#176=EDGE_CURVE('',#170,#170,#175,.T.);
#177=ORIENTED_EDGE('',*,*,#176,.T.);
#178=EDGE_LOOP('',(#177));
#179=FACE_OUTER_BOUND('',#178,.T.);
#180=ORIENTED_EDGE('',*,*,#148,.F.);
#181=EDGE_LOOP('',(#180));
#182=FACE_BOUND('',#181,.T.);
#183=ADVANCED_FACE('',(#179,#182),#168,.T.);
#184=CARTESIAN_POINT('',(27.0,9.000000000000002,0.0));
#185=DIRECTION('',(-1.0,0.0,0.0));
#186=DIRECTION('',(0.0,0.0,1.0));
#187=AXIS2_PLACEMENT_3D('',#184,#185,#186);
#188=PLANE('',#187);
#189=CARTESIAN_POINT('',(27.0,10.500000000000000,0.0));
#190=VERTEX_POINT('',#189);
#191=CARTESIAN_POINT('',(27.0,0.0,0.0));
#192=DIRECTION('',(1.0,0.0,0.0));
#193=DIRECTION('',(0.0,1.0,0.0));
#194=AXIS2_PLACEMENT_3D('',#191,#192,#193);
#195=CIRCLE('',#194,10.500000000000000);
#196=EDGE_CURVE('',#190,#190,#195,.T.);
#197=ORIENTED_EDGE('',*,*,#196,.F.);
#198=EDGE_LOOP('',(#197));
#199=FACE_OUTER_BOUND('',#198,.T.);
#200=ORIENTED_EDGE('',*,*,#159,.F.);
#201=EDGE_LOOP('',(#200));
#202=FACE_BOUND('',#201,.T.);
#203=ADVANCED_FACE('',(#199,#202),#188,.T.);
#204=CARTESIAN_POINT('',(3.758012701892218,0.0,0.0));
#205=DIRECTION('',(1.0,0.0,0.0));
#206=DIRECTION('',(0.0,1.0,0.0));
#207=AXIS2_PLACEMENT_3D('',#204,#205,#206);
#208=CYLINDRICAL_SURFACE('',#207,6.500000000000000);
#209=CARTESIAN_POINT('',(6.650000000000002,6.500000000000002,0.0));
#210=VERTEX_POINT('',#209);
#211=CARTESIAN_POINT('',(6.650000000000002,0.0,0.0));
#212=DIRECTION('',(1.0,0.0,0.0));
#213=DIRECTION('',(0.0,1.0,0.0));
#214=AXIS2_PLACEMENT_3D('',#211,#212,#213);
#215=CIRCLE('',#214,6.500000000000002);
#216=EDGE_CURVE('',#210,#210,#215,.T.);
#217=ORIENTED_EDGE('',*,*,#216,.F.);
#218=EDGE_LOOP('',(#217));
#219=FACE_OUTER_BOUND('',#218,.T.);
#220=ORIENTED_EDGE('',*,*,#108,.T.);
#221=EDGE_LOOP('',(#220));
#222=FACE_BOUND('',#221,.T.);
#223=ADVANCED_FACE('',(#219,#222),#208,.T.);
#224=CARTESIAN_POINT('',(7.150000000000002,0.0,0.0));
#225=DIRECTION('',(1.0,0.0,0.0));
#226=DIRECTION('',(0.0,1.0,0.0));
#227=AXIS2_PLACEMENT_3D('',#224,#225,#226);
#228=CONICAL_SURFACE('',#227,7.000000000000001,45.000000000000007);
#229=CARTESIAN_POINT('',(7.650000000000001,7.500000000000000,0.0));
#230=VERTEX_POINT('',#229);
#231=CARTESIAN_POINT('',(7.650000000000001,0.0,0.0));
#232=DIRECTION('',(1.0,0.0,0.0));
#233=DIRECTION('',(0.0,1.0,0.0));
#234=AXIS2_PLACEMENT_3D('',#231,#232,#233);
#235=CIRCLE('',#234,7.500000000000000);
#236=EDGE_CURVE('',#230,#230,#235,.T.);
#237=ORIENTED_EDGE('',*,*,#236,.F.);
#238=EDGE_LOOP('',(#237));
#239=FACE_OUTER_BOUND('',#238,.T.);
#240=ORIENTED_EDGE('',*,*,#216,.T.);
#241=EDGE_LOOP('',(#240));
#242=FACE_BOUND('',#241,.T.);
#243=ADVANCED_FACE('',(#239,#242),#228,.T.);
#244=CARTESIAN_POINT('',(8.150000000000000,0.0,0.0));
#245=DIRECTION('',(1.0,0.0,0.0));
#246=DIRECTION('',(0.0,1.0,0.0));
#247=AXIS2_PLACEMENT_3D('',#244,#245,#246);
#248=CYLINDRICAL_SURFACE('',#247,7.500000000000000);
#249=CARTESIAN_POINT('',(8.650000000000000,7.500000000000000,0.0));
#250=VERTEX_POINT('',#249);
#251=CARTESIAN_POINT('',(8.650000000000000,0.0,0.0));
#252=DIRECTION('',(1.0,0.0,0.0));
#253=DIRECTION('',(0.0,1.0,0.0));
#254=AXIS2_PLACEMENT_3D('',#251,#252,#253);
#255=CIRCLE('',#254,7.500000000000000);
#256=EDGE_CURVE('',#250,#250,#255,.T.);
#257=ORIENTED_EDGE('',*,*,#256,.F.);
#258=EDGE_LOOP('',(#257));
#259=FACE_OUTER_BOUND('',#258,.T.);
#260=ORIENTED_EDGE('',*,*,#236,.T.);
#261=EDGE_LOOP('',(#260));
#262=FACE_BOUND('',#261,.T.);
#263=ADVANCED_FACE('',(#259,#262),#248,.T.);
#264=CARTESIAN_POINT('',(9.149999999999999,0.0,0.0));
#265=DIRECTION('',(-1.0,0.0,0.0));
#266=DIRECTION('',(0.0,1.0,0.0));
#267=AXIS2_PLACEMENT_3D('',#264,#265,#266);
#268=CONICAL_SURFACE('',#267,7.000000000000001,45.000000000000007);
#269=CARTESIAN_POINT('',(9.649999999999999,6.500000000000002,0.0));
#270=VERTEX_POINT('',#269);
#271=CARTESIAN_POINT('',(9.649999999999999,0.0,0.0));
#272=DIRECTION('',(1.0,0.0,0.0));
#273=DIRECTION('',(0.0,1.0,0.0));
#274=AXIS2_PLACEMENT_3D('',#271,#272,#273);
#275=CIRCLE('',#274,6.500000000000002);
#276=EDGE_CURVE('',#270,#270,#275,.T.);
#277=ORIENTED_EDGE('',*,*,#276,.F.);
#278=EDGE_LOOP('',(#277));
#279=FACE_OUTER_BOUND('',#278,.T.);
#280=ORIENTED_EDGE('',*,*,#256,.T.);
#281=EDGE_LOOP('',(#280));
#282=FACE_BOUND('',#281,.T.);
#283=ADVANCED_FACE('',(#279,#282),#268,.T.);
#284=CARTESIAN_POINT('',(11.449999999999999,0.0,0.0));
#285=DIRECTION('',(1.0,0.0,0.0));
#286=DIRECTION('',(0.0,1.0,0.0));
#287=AXIS2_PLACEMENT_3D('',#284,#285,#286);
#288=CYLINDRICAL_SURFACE('',#287,6.500000000000002);
#289=CARTESIAN_POINT('',(13.250000000000002,6.500000000000002,0.0));
#290=VERTEX_POINT('',#289);
#291=CARTESIAN_POINT('',(13.250000000000002,0.0,0.0));
#292=DIRECTION('',(1.0,0.0,0.0));
#293=DIRECTION('',(0.0,1.0,0.0));
#294=AXIS2_PLACEMENT_3D('',#291,#292,#293);
#295=CIRCLE('',#294,6.500000000000002);
#296=EDGE_CURVE('',#290,#290,#295,.T.);
#297=ORIENTED_EDGE('',*,*,#296,.F.);
#298=EDGE_LOOP('',(#297));
#299=FACE_OUTER_BOUND('',#298,.T.);
#300=ORIENTED_EDGE('',*,*,#276,.T.);
#301=EDGE_LOOP('',(#300));
#302=FACE_BOUND('',#301,.T.);
#303=ADVANCED_FACE('',(#299,#302),#288,.T.);
#304=CARTESIAN_POINT('',(13.750000000000000,0.0,0.0));
#305=DIRECTION('',(1.0,0.0,0.0));
#306=DIRECTION('',(0.0,1.0,0.0));
#307=AXIS2_PLACEMENT_3D('',#304,#305,#306);
#308=CONICAL_SURFACE('',#307,7.000000000000001,45.000000000000071);
#309=CARTESIAN_POINT('',(14.249999999999998,7.500000000000000,0.0));
#310=VERTEX_POINT('',#309);
#311=CARTESIAN_POINT('',(14.249999999999998,0.0,0.0));
#312=DIRECTION('',(1.0,0.0,0.0));
#313=DIRECTION('',(0.0,1.0,0.0));
#314=AXIS2_PLACEMENT_3D('',#311,#312,#313);
#315=CIRCLE('',#314,7.500000000000000);
#316=EDGE_CURVE('',#310,#310,#315,.T.);
#317=ORIENTED_EDGE('',*,*,#316,.F.);
#318=EDGE_LOOP('',(#317));
#319=FACE_OUTER_BOUND('',#318,.T.);
#320=ORIENTED_EDGE('',*,*,#296,.T.);
#321=EDGE_LOOP('',(#320));
#322=FACE_BOUND('',#321,.T.);
#323=ADVANCED_FACE('',(#319,#322),#308,.T.);
#324=CARTESIAN_POINT('',(14.949999999999999,0.0,0.0));
#325=DIRECTION('',(1.0,0.0,0.0));
#326=DIRECTION('',(0.0,1.0,0.0));
#327=AXIS2_PLACEMENT_3D('',#324,#325,#326);
#328=CYLINDRICAL_SURFACE('',#327,7.500000000000000);
#329=CARTESIAN_POINT('',(15.649999999999999,7.500000000000001,0.0));
#330=VERTEX_POINT('',#329);
#331=CARTESIAN_POINT('',(15.649999999999999,0.0,0.0));
#332=DIRECTION('',(1.0,0.0,0.0));
#333=DIRECTION('',(0.0,1.0,0.0));
#334=AXIS2_PLACEMENT_3D('',#331,#332,#333);
#335=CIRCLE('',#334,7.500000000000001);
#336=EDGE_CURVE('',#330,#330,#335,.T.);
#337=ORIENTED_EDGE('',*,*,#336,.F.);
#338=EDGE_LOOP('',(#337));
#339=FACE_OUTER_BOUND('',#338,.T.);
#340=ORIENTED_EDGE('',*,*,#316,.T.);
#341=EDGE_LOOP('',(#340));
#342=FACE_BOUND('',#341,.T.);
#343=ADVANCED_FACE('',(#339,#342),#328,.T.);
#344=CARTESIAN_POINT('',(16.149999999999999,0.0,0.0));
#345=DIRECTION('',(-1.0,0.0,0.0));
#346=DIRECTION('',(0.0,1.0,0.0));
#347=AXIS2_PLACEMENT_3D('',#344,#345,#346);
#348=CONICAL_SURFACE('',#347,7.000000000000001,45.000000000000007);
#349=CARTESIAN_POINT('',(16.649999999999999,6.500000000000000,0.0));
#350=VERTEX_POINT('',#349);
#351=CARTESIAN_POINT('',(16.649999999999999,0.0,0.0));
#352=DIRECTION('',(1.0,0.0,0.0));
#353=DIRECTION('',(0.0,1.0,0.0));
#354=AXIS2_PLACEMENT_3D('',#351,#352,#353);
#355=CIRCLE('',#354,6.500000000000000);
#356=EDGE_CURVE('',#350,#350,#355,.T.);
#357=ORIENTED_EDGE('',*,*,#356,.F.);
#358=EDGE_LOOP('',(#357));
#359=FACE_OUTER_BOUND('',#358,.T.);
#360=ORIENTED_EDGE('',*,*,#336,.T.);
#361=EDGE_LOOP('',(#360));
#362=FACE_BOUND('',#361,.T.);
#363=ADVANCED_FACE('',(#359,#362),#348,.T.);
#364=CARTESIAN_POINT('',(17.400000000000002,0.0,0.0));
#365=DIRECTION('',(1.0,0.0,0.0));
#366=DIRECTION('',(0.0,1.0,0.0));
#367=AXIS2_PLACEMENT_3D('',#364,#365,#366);
#368=CYLINDRICAL_SURFACE('',#367,6.500000000000000);
#369=CARTESIAN_POINT('',(18.150000000000006,6.500000000000000,0.0));
#370=VERTEX_POINT('',#369);
#371=CARTESIAN_POINT('',(18.150000000000006,0.0,0.0));
#372=DIRECTION('',(1.0,0.0,0.0));
#373=DIRECTION('',(0.0,1.0,0.0));
#374=AXIS2_PLACEMENT_3D('',#371,#372,#373);
#375=CIRCLE('',#374,6.500000000000000);
#376=EDGE_CURVE('',#370,#370,#375,.T.);
#377=ORIENTED_EDGE('',*,*,#376,.F.);
#378=EDGE_LOOP('',(#377));
#379=FACE_OUTER_BOUND('',#378,.T.);
#380=ORIENTED_EDGE('',*,*,#356,.T.);
#381=EDGE_LOOP('',(#380));
#382=FACE_BOUND('',#381,.T.);
#383=ADVANCED_FACE('',(#379,#382),#368,.T.);
#384=CARTESIAN_POINT('',(18.650000000000002,0.0,0.0));
#385=DIRECTION('',(1.0,0.0,0.0));
#386=DIRECTION('',(0.0,1.0,0.0));
#387=AXIS2_PLACEMENT_3D('',#384,#385,#386);
#388=CONICAL_SURFACE('',#387,7.0,45.000000000000135);
#389=ORIENTED_EDGE('',*,*,#176,.F.);
#390=EDGE_LOOP('',(#389));
#391=FACE_OUTER_BOUND('',#390,.T.);
#392=ORIENTED_EDGE('',*,*,#376,.T.);
#393=EDGE_LOOP('',(#392));
#394=FACE_BOUND('',#393,.T.);
#395=ADVANCED_FACE('',(#391,#394),#388,.T.);
#396=CARTESIAN_POINT('',(29.000000000000004,0.0,0.0));
#397=DIRECTION('',(1.0,0.0,0.0));
#398=DIRECTION('',(0.0,1.0,0.0));
#399=AXIS2_PLACEMENT_3D('',#396,#397,#398);
#400=CYLINDRICAL_SURFACE('',#399,10.500000000000000);
#401=CARTESIAN_POINT('',(31.0,10.500000000000000,0.0));
#402=VERTEX_POINT('',#401);
#403=CARTESIAN_POINT('',(31.0,0.0,0.0));
#404=DIRECTION('',(1.0,0.0,0.0));
#405=DIRECTION('',(0.0,1.0,0.0));
#406=AXIS2_PLACEMENT_3D('',#403,#404,#405);
#407=CIRCLE('',#406,10.500000000000000);
#408=EDGE_CURVE('',#402,#402,#407,.T.);
#409=ORIENTED_EDGE('',*,*,#408,.F.);
#410=EDGE_LOOP('',(#409));
#411=FACE_OUTER_BOUND('',#410,.T.);
#412=ORIENTED_EDGE('',*,*,#196,.T.);
#413=EDGE_LOOP('',(#412));
#414=FACE_BOUND('',#413,.T.);
#415=ADVANCED_FACE('',(#411,#414),#400,.T.);
#416=CARTESIAN_POINT('',(31.0,10.024999999999999,0.0));
#417=DIRECTION('',(1.0,0.0,0.0));
#418=DIRECTION('',(0.0,0.0,-1.0));
#419=AXIS2_PLACEMENT_3D('',#416,#417,#418);
#420=PLANE('',#419);
#421=ORIENTED_EDGE('',*,*,#408,.T.);
#422=EDGE_LOOP('',(#421));
#423=FACE_OUTER_BOUND('',#422,.T.);
#424=CARTESIAN_POINT('',(31.0,9.549999999999999,0.0));
#425=VERTEX_POINT('',#424);
#426=CARTESIAN_POINT('',(31.0,0.0,0.0));
#427=DIRECTION('',(1.0,0.0,0.0));
#428=DIRECTION('',(0.0,1.0,0.0));
#429=AXIS2_PLACEMENT_3D('',#426,#427,#428);
#430=CIRCLE('',#429,9.549999999999999);
#431=EDGE_CURVE('',#425,#425,#430,.T.);
#432=ORIENTED_EDGE('',*,*,#431,.F.);
#433=EDGE_LOOP('',(#432));
#434=FACE_BOUND('',#433,.T.);
#435=ADVANCED_FACE('',(#423,#434),#420,.T.);
#436=CARTESIAN_POINT('',(37.750000000000000,0.0,0.0));
#437=DIRECTION('',(1.0,0.0,0.0));
#438=DIRECTION('',(0.0,1.0,0.0));
#439=AXIS2_PLACEMENT_3D('',#436,#437,#438);
#440=CYLINDRICAL_SURFACE('',#439,9.550000000000001);
#441=CARTESIAN_POINT('',(44.500000000000000,9.550000000000003,0.0));
#442=VERTEX_POINT('',#441);
#443=CARTESIAN_POINT('',(44.500000000000000,0.0,0.0));
#444=DIRECTION('',(1.0,0.0,0.0));
#445=DIRECTION('',(0.0,1.0,0.0));
#446=AXIS2_PLACEMENT_3D('',#443,#444,#445);
#447=CIRCLE('',#446,9.550000000000003);
#448=EDGE_CURVE('',#442,#442,#447,.T.);
#449=ORIENTED_EDGE('',*,*,#448,.F.);
#450=EDGE_LOOP('',(#449));
#451=FACE_OUTER_BOUND('',#450,.T.);
#452=ORIENTED_EDGE('',*,*,#431,.T.);
#453=EDGE_LOOP('',(#452));
#454=FACE_BOUND('',#453,.T.);
#455=ADVANCED_FACE('',(#451,#454),#440,.T.);
#456=CARTESIAN_POINT('',(44.500000000000000,9.750000000000000,0.0));
#457=DIRECTION('',(-1.0,0.0,0.0));
#458=DIRECTION('',(0.0,0.0,1.0));
#459=AXIS2_PLACEMENT_3D('',#456,#457,#458);
#460=PLANE('',#459);
#461=CARTESIAN_POINT('',(44.500000000000000,9.949999999999999,0.0));
#462=VERTEX_POINT('',#461);
#463=CARTESIAN_POINT('',(44.500000000000000,0.0,0.0));
#464=DIRECTION('',(1.0,0.0,0.0));
#465=DIRECTION('',(0.0,1.0,0.0));
#466=AXIS2_PLACEMENT_3D('',#463,#464,#465);
#467=CIRCLE('',#466,9.949999999999999);
#468=EDGE_CURVE('',#462,#462,#467,.T.);
#469=ORIENTED_EDGE('',*,*,#468,.F.);
#470=EDGE_LOOP('',(#469));
#471=FACE_OUTER_BOUND('',#470,.T.);
#472=ORIENTED_EDGE('',*,*,#448,.T.);
#473=EDGE_LOOP('',(#472));
#474=FACE_BOUND('',#473,.T.);
#475=ADVANCED_FACE('',(#471,#474),#460,.T.);
#476=CARTESIAN_POINT('',(44.750000000000007,0.0,0.0));
#477=DIRECTION('',(1.0,0.0,0.0));
#478=DIRECTION('',(0.0,0.0,-1.0));
#479=AXIS2_PLACEMENT_3D('',#476,#477,#478);
#480=TOROIDAL_SURFACE('',#479,9.949999999999999,0.250000000000000);
#481=CARTESIAN_POINT('',(44.789703860057948,10.196827072049437,0.0));
#482=VERTEX_POINT('',#481);
#483=CARTESIAN_POINT('',(44.789703860057948,0.0,0.0));
#484=DIRECTION('',(1.0,0.0,0.0));
#485=DIRECTION('',(0.0,1.0,0.0));
#486=AXIS2_PLACEMENT_3D('',#483,#484,#485);
#487=CIRCLE('',#486,10.196827072049437);
#488=EDGE_CURVE('',#482,#482,#487,.T.);
#489=ORIENTED_EDGE('',*,*,#488,.F.);
#490=EDGE_LOOP('',(#489));
#491=FACE_OUTER_BOUND('',#490,.T.);
#492=ORIENTED_EDGE('',*,*,#468,.T.);
#493=EDGE_LOOP('',(#492));
#494=FACE_BOUND('',#493,.T.);
#495=ADVANCED_FACE('',(#491,#494),#480,.T.);
#496=CARTESIAN_POINT('',(46.468799249801407,0.0,0.0));
#497=DIRECTION('',(-1.0,0.0,0.0));
#498=DIRECTION('',(0.0,1.0,0.0));
#499=AXIS2_PLACEMENT_3D('',#496,#497,#498);
#500=CONICAL_SURFACE('',#499,9.900693334789544,10.002115255431251);
#501=CARTESIAN_POINT('',(48.147894639544873,9.604559597529649,0.0));
#502=VERTEX_POINT('',#501);
#503=CARTESIAN_POINT('',(48.147894639544873,0.0,0.0));
#504=DIRECTION('',(1.0,0.0,0.0));
#505=DIRECTION('',(0.0,1.0,0.0));
#506=AXIS2_PLACEMENT_3D('',#503,#504,#505);
#507=CIRCLE('',#506,9.604559597529649);
#508=EDGE_CURVE('',#502,#502,#507,.T.);
#509=ORIENTED_EDGE('',*,*,#508,.F.);
#510=EDGE_LOOP('',(#509));
#511=FACE_OUTER_BOUND('',#510,.T.);
#512=ORIENTED_EDGE('',*,*,#488,.T.);
#513=EDGE_LOOP('',(#512));
#514=FACE_BOUND('',#513,.T.);
#515=ADVANCED_FACE('',(#511,#514),#500,.T.);
#516=CARTESIAN_POINT('',(48.199999999999996,0.0,0.0));
#517=DIRECTION('',(1.0,0.0,0.0));
#518=DIRECTION('',(0.0,0.0,-1.0));
#519=AXIS2_PLACEMENT_3D('',#516,#517,#518);
#520=TOROIDAL_SURFACE('',#519,9.899999999999999,0.300000000000000);
#521=CARTESIAN_POINT('',(48.500000000000000,9.899999999999999,0.0));
#522=VERTEX_POINT('',#521);
#523=CARTESIAN_POINT('',(48.500000000000000,0.0,0.0));
#524=DIRECTION('',(1.0,0.0,0.0));
#525=DIRECTION('',(0.0,1.0,0.0));
#526=AXIS2_PLACEMENT_3D('',#523,#524,#525);
#527=CIRCLE('',#526,9.899999999999999);
#528=EDGE_CURVE('',#522,#522,#527,.T.);
#529=ORIENTED_EDGE('',*,*,#528,.F.);
#530=EDGE_LOOP('',(#529));
#531=FACE_OUTER_BOUND('',#530,.T.);
#532=ORIENTED_EDGE('',*,*,#508,.T.);
#533=EDGE_LOOP('',(#532));
#534=FACE_BOUND('',#533,.T.);
#535=ADVANCED_FACE('',(#531,#534),#520,.F.);
#536=CARTESIAN_POINT('',(48.500000000000000,9.924999999999999,0.0));
#537=DIRECTION('',(-1.0,0.0,0.0));
#538=DIRECTION('',(0.0,0.0,1.0));
#539=AXIS2_PLACEMENT_3D('',#536,#537,#538);
#540=PLANE('',#539);
#541=CARTESIAN_POINT('',(48.500000000000007,9.949999999999999,0.0));
#542=VERTEX_POINT('',#541);
#543=CARTESIAN_POINT('',(48.500000000000007,0.0,0.0));
#544=DIRECTION('',(1.0,0.0,0.0));
#545=DIRECTION('',(0.0,1.0,0.0));
#546=AXIS2_PLACEMENT_3D('',#543,#544,#545);
#547=CIRCLE('',#546,9.949999999999999);
#548=EDGE_CURVE('',#542,#542,#547,.T.);
#549=ORIENTED_EDGE('',*,*,#548,.F.);
#550=EDGE_LOOP('',(#549));
#551=FACE_OUTER_BOUND('',#550,.T.);
#552=ORIENTED_EDGE('',*,*,#528,.T.);
#553=EDGE_LOOP('',(#552));
#554=FACE_BOUND('',#553,.T.);
#555=ADVANCED_FACE('',(#551,#554),#540,.T.);
#556=CARTESIAN_POINT('',(48.750000000000007,0.0,0.0));
#557=DIRECTION('',(1.0,0.0,0.0));
#558=DIRECTION('',(0.0,0.0,-1.0));
#559=AXIS2_PLACEMENT_3D('',#556,#557,#558);
#560=TOROIDAL_SURFACE('',#559,9.949999999999999,0.250000000000000);
#561=CARTESIAN_POINT('',(48.789703860057962,10.196827072049441,0.0));
#562=VERTEX_POINT('',#561);
#563=CARTESIAN_POINT('',(48.789703860057962,0.0,0.0));
#564=DIRECTION('',(1.0,0.0,0.0));
#565=DIRECTION('',(0.0,1.0,0.0));
#566=AXIS2_PLACEMENT_3D('',#563,#564,#565);
#567=CIRCLE('',#566,10.196827072049441);
#568=EDGE_CURVE('',#562,#562,#567,.T.);
#569=ORIENTED_EDGE('',*,*,#568,.F.);
#570=EDGE_LOOP('',(#569));
#571=FACE_OUTER_BOUND('',#570,.T.);
#572=ORIENTED_EDGE('',*,*,#548,.T.);
#573=EDGE_LOOP('',(#572));
#574=FACE_BOUND('',#573,.T.);
#575=ADVANCED_FACE('',(#571,#574),#560,.T.);
#576=CARTESIAN_POINT('',(50.644851930028985,0.0,0.0));
#577=DIRECTION('',(-1.0,0.0,0.0));
#578=DIRECTION('',(0.0,1.0,0.0));
#579=AXIS2_PLACEMENT_3D('',#576,#577,#578);
#580=CONICAL_SURFACE('',#579,9.898413536024721,9.138146831770126);
#581=CARTESIAN_POINT('',(52.500000000000007,9.600000000000000,0.0));
#582=VERTEX_POINT('',#581);
#583=CARTESIAN_POINT('',(52.500000000000007,0.0,0.0));
#584=DIRECTION('',(1.0,0.0,0.0));
#585=DIRECTION('',(0.0,1.0,0.0));
#586=AXIS2_PLACEMENT_3D('',#583,#584,#585);
#587=CIRCLE('',#586,9.600000000000000);
#588=EDGE_CURVE('',#582,#582,#587,.T.);
#589=ORIENTED_EDGE('',*,*,#588,.F.);
#590=EDGE_LOOP('',(#589));
#591=FACE_OUTER_BOUND('',#590,.T.);
#592=ORIENTED_EDGE('',*,*,#568,.T.);
#593=EDGE_LOOP('',(#592));
#594=FACE_BOUND('',#593,.T.);
#595=ADVANCED_FACE('',(#591,#594),#580,.T.);
#596=CARTESIAN_POINT('',(54.124807680927205,0.0,0.0));
#597=DIRECTION('',(1.0,0.0,0.0));
#598=DIRECTION('',(0.0,0.0,-1.0));
#599=AXIS2_PLACEMENT_3D('',#596,#597,#598);
#600=TOROIDAL_SURFACE('',#599,7.700000000000001,2.500000000000002);
#601=CARTESIAN_POINT('',(56.000000000000007,9.353376474518246,0.0));
#602=VERTEX_POINT('',#601);
#603=CARTESIAN_POINT('',(56.000000000000007,0.0,0.0));
#604=DIRECTION('',(1.0,0.0,0.0));
#605=DIRECTION('',(0.0,1.0,0.0));
#606=AXIS2_PLACEMENT_3D('',#603,#604,#605);
#607=CIRCLE('',#606,9.353376474518246);
#608=EDGE_CURVE('',#602,#602,#607,.T.);
#609=ORIENTED_EDGE('',*,*,#608,.F.);
#610=EDGE_LOOP('',(#609));
#611=FACE_OUTER_BOUND('',#610,.T.);
#612=ORIENTED_EDGE('',*,*,#588,.T.);
#613=EDGE_LOOP('',(#612));
#614=FACE_BOUND('',#613,.T.);
#615=ADVANCED_FACE('',(#611,#614),#600,.T.);
#616=CARTESIAN_POINT('',(56.000000000000007,8.676688237259127,0.0));
#617=DIRECTION('',(1.0,0.0,0.0));
#618=DIRECTION('',(0.0,0.0,-1.0));
#619=AXIS2_PLACEMENT_3D('',#616,#617,#618);
#620=PLANE('',#619);
#621=ORIENTED_EDGE('',*,*,#608,.T.);
#622=EDGE_LOOP('',(#621));
#623=FACE_OUTER_BOUND('',#622,.T.);
#624=CARTESIAN_POINT('',(56.000000000000007,8.000000000000005,0.0));
#625=VERTEX_POINT('',#624);
#626=CARTESIAN_POINT('',(56.000000000000007,0.0,0.0));
#627=DIRECTION('',(1.0,0.0,0.0));
#628=DIRECTION('',(0.0,1.0,0.0));
#629=AXIS2_PLACEMENT_3D('',#626,#627,#628);
#630=CIRCLE('',#629,8.000000000000005);
#631=EDGE_CURVE('',#625,#625,#630,.T.);
#632=ORIENTED_EDGE('',*,*,#631,.F.);
#633=EDGE_LOOP('',(#632));
#634=FACE_BOUND('',#633,.T.);
#635=ADVANCED_FACE('',(#623,#634),#620,.T.);
#636=CARTESIAN_POINT('',(43.250000000000000,0.0,0.0));
#637=DIRECTION('',(1.0,0.0,0.0));
#638=DIRECTION('',(0.0,1.0,0.0));
#639=AXIS2_PLACEMENT_3D('',#636,#637,#638);
#640=CYLINDRICAL_SURFACE('',#639,7.999999999999998);
#641=CARTESIAN_POINT('',(30.500000000000004,7.999999999999991,0.0));
#642=VERTEX_POINT('',#641);
#643=CARTESIAN_POINT('',(30.500000000000004,0.0,0.0));
#644=DIRECTION('',(1.0,0.0,0.0));
#645=DIRECTION('',(0.0,1.0,0.0));
#646=AXIS2_PLACEMENT_3D('',#643,#644,#645);
#647=CIRCLE('',#646,7.999999999999991);
#648=EDGE_CURVE('',#642,#642,#647,.T.);
#649=ORIENTED_EDGE('',*,*,#648,.F.);
#650=EDGE_LOOP('',(#649));
#651=FACE_OUTER_BOUND('',#650,.T.);
#652=ORIENTED_EDGE('',*,*,#631,.T.);
#653=EDGE_LOOP('',(#652));
#654=FACE_BOUND('',#653,.T.);
#655=ADVANCED_FACE('',(#651,#654),#640,.F.);
#656=CARTESIAN_POINT('',(29.706143379864272,0.0,0.0));
#657=DIRECTION('',(1.0,0.0,0.0));
#658=DIRECTION('',(0.0,1.0,0.0));
#659=AXIS2_PLACEMENT_3D('',#656,#657,#658);
#660=CONICAL_SURFACE('',#659,6.624999999999998,60.000000000000007);
#661=CARTESIAN_POINT('',(28.912286759728541,5.250000000000005,0.0));
#662=VERTEX_POINT('',#661);
#663=CARTESIAN_POINT('',(28.912286759728541,0.0,0.0));
#664=DIRECTION('',(1.0,0.0,0.0));
#665=DIRECTION('',(0.0,1.0,0.0));
#666=AXIS2_PLACEMENT_3D('',#663,#664,#665);
#667=CIRCLE('',#666,5.250000000000005);
#668=EDGE_CURVE('',#662,#662,#667,.T.);
#669=ORIENTED_EDGE('',*,*,#668,.F.);
#670=EDGE_LOOP('',(#669));
#671=FACE_OUTER_BOUND('',#670,.T.);
#672=ORIENTED_EDGE('',*,*,#648,.T.);
#673=EDGE_LOOP('',(#672));
#674=FACE_BOUND('',#673,.T.);
#675=ADVANCED_FACE('',(#671,#674),#660,.F.);
#676=CARTESIAN_POINT('',(14.456143379864271,0.0,0.0));
#677=DIRECTION('',(1.0,0.0,0.0));
#678=DIRECTION('',(0.0,1.0,0.0));
#679=AXIS2_PLACEMENT_3D('',#676,#677,#678);
#680=CYLINDRICAL_SURFACE('',#679,5.249999999999999);
#681=ORIENTED_EDGE('',*,*,#131,.F.);
#682=EDGE_LOOP('',(#681));
#683=FACE_OUTER_BOUND('',#682,.T.);
#684=ORIENTED_EDGE('',*,*,#668,.T.);
#685=EDGE_LOOP('',(#684));
#686=FACE_BOUND('',#685,.T.);
#687=ADVANCED_FACE('',(#683,#686),#680,.F.);
#688=CLOSED_SHELL('',(#95,#115,#135,#163,#183,#203,#223,#243,#263,#283,#303,#323,#343,#363,#383,#395,#415,#435,#455,#475,#495,#515,#535,#555,#575,#595,#615,#635,#655,#675,#687));
#689=MANIFOLD_SOLID_BREP('Volumenk\S\vrper1',#688);
#690=COLOUR_RGB('Metall - Stahl',0.639216005802155,0.639216005802155,0.686275005340576);
#691=FILL_AREA_STYLE_COLOUR('Metall - Stahl',#690);
#692=FILL_AREA_STYLE('Metall - Stahl',(#691));
#693=SURFACE_STYLE_FILL_AREA(#692);
#694=SURFACE_SIDE_STYLE('Metall - Stahl',(#693));
#695=SURFACE_STYLE_USAGE(.BOTH.,#694);
#696=PRESENTATION_STYLE_ASSIGNMENT((#695));
#697=STYLED_ITEM('',(#696),#689);
#698=MECHANICAL_DESIGN_GEOMETRIC_PRESENTATION_REPRESENTATION('',(#697),#36);
#699=ADVANCED_BREP_SHAPE_REPRESENTATION('ABSR',(#689),#36);
#700=SHAPE_REPRESENTATION_RELATIONSHIP('SRR','None',#699,#41);
ENDSEC;
END-ISO-10303-21;
