ISO-10303-21;
HEADER;
/****************************************************************
 * Generated by software with PDElib inside                    *
 * PDElib Version v51a, created Wed 11/30/2011                  *
 * ITI Transcendata (http://www.transcendata.com/)              *
 ****************************************************************/
FILE_DESCRIPTION((''),'2;1');
FILE_NAME('J:\\3D Zeichnungen_step\\Serie 26\\26sftf10mxx.stp','2013-06-10T11:20:23',('IA176480'),(''),'Autodesk Inventor 2013','Autodesk Inventor 2013','');
FILE_SCHEMA(('AUTOMOTIVE_DESIGN { 1 0 10303 214 1 1 1 1 }'));
ENDSEC;
DATA;
#5=APPLICATION_CONTEXT('automotive design');
#6=APPLICATION_PROTOCOL_DEFINITION('International Standard','automotive_design',2001,#5);
#7=PRODUCT_CONTEXT('',#5,'mechanical');
#8=PRODUCT('D106813','D106813',$,(#7));
#9=PRODUCT_RELATED_PRODUCT_CATEGORY('part',$,(#8));
#10=PRODUCT_DEFINITION_FORMATION('',$,#8);
#11=PRODUCT_DEFINITION_CONTEXT('part definition',#5,'design');
#12=PRODUCT_DEFINITION('',$,#10,#11);
#18=(NAMED_UNIT(*)PLANE_ANGLE_UNIT()SI_UNIT($,.RADIAN.));
#19=DIMENSIONAL_EXPONENTS(0.0,0.0,0.0,0.0,0.0,0.0,0.0);
#20=PLANE_ANGLE_MEASURE_WITH_UNIT(PLANE_ANGLE_MEASURE(0.0174532925),#18);
#24=(CONVERSION_BASED_UNIT('DEGREE',#20)NAMED_UNIT(#19)PLANE_ANGLE_UNIT());
#28=(NAMED_UNIT(*)SI_UNIT($,.STERADIAN.)SOLID_ANGLE_UNIT());
#32=(LENGTH_UNIT()NAMED_UNIT(*)SI_UNIT(.MILLI.,.METRE.));
#34=UNCERTAINTY_MEASURE_WITH_UNIT(LENGTH_MEASURE(0.01),#32,'DISTANCE_ACCURACY_VALUE','');
#36=(GEOMETRIC_REPRESENTATION_CONTEXT(3)GLOBAL_UNCERTAINTY_ASSIGNED_CONTEXT((#34))GLOBAL_UNIT_ASSIGNED_CONTEXT((#24,#28,#32))REPRESENTATION_CONTEXT('None','None'));
#37=AXIS2_PLACEMENT_3D('',#38,#39,#40);
#38=CARTESIAN_POINT('',(0.0,0.0,0.0));
#39=DIRECTION('',(0.0,0.0,1.0));
#40=DIRECTION('',(1.0,0.0,0.0));
#41=SHAPE_REPRESENTATION('',(#37),#36);
#42=PRODUCT_DEFINITION_SHAPE('','',#12);
#43=SHAPE_DEFINITION_REPRESENTATION(#42,#41);
#49=(NAMED_UNIT(*)PLANE_ANGLE_UNIT()SI_UNIT($,.RADIAN.));
#50=DIMENSIONAL_EXPONENTS(0.0,0.0,0.0,0.0,0.0,0.0,0.0);
#51=PLANE_ANGLE_MEASURE_WITH_UNIT(PLANE_ANGLE_MEASURE(0.0174532925),#49);
#55=(CONVERSION_BASED_UNIT('DEGREE',#51)NAMED_UNIT(#50)PLANE_ANGLE_UNIT());
#59=(NAMED_UNIT(*)SI_UNIT($,.STERADIAN.)SOLID_ANGLE_UNIT());
#63=(LENGTH_UNIT()NAMED_UNIT(*)SI_UNIT(.MILLI.,.METRE.));
#65=UNCERTAINTY_MEASURE_WITH_UNIT(LENGTH_MEASURE(0.000001),#63,'DISTANCE_ACCURACY_VALUE','');
#67=(GEOMETRIC_REPRESENTATION_CONTEXT(3)GLOBAL_UNCERTAINTY_ASSIGNED_CONTEXT((#65))GLOBAL_UNIT_ASSIGNED_CONTEXT((#55,#59,#63))REPRESENTATION_CONTEXT('','3D'));
#68=CARTESIAN_POINT('',(23.998749217771916,0.0,0.0));
#69=DIRECTION('',(-1.0,0.0,0.0));
#70=DIRECTION('',(0.0,1.0,0.0));
#71=AXIS2_PLACEMENT_3D('',#68,#69,#70);
#72=TOROIDAL_SURFACE('',#71,6.049999999999999,1.0);
#73=CARTESIAN_POINT('',(23.000000000000007,6.000000000000004,0.0));
#74=VERTEX_POINT('',#73);
#75=CARTESIAN_POINT('',(23.000000000000007,0.0,0.0));
#76=DIRECTION('',(1.0,0.0,0.0));
#77=DIRECTION('',(0.0,1.0,0.0));
#78=AXIS2_PLACEMENT_3D('',#75,#76,#77);
#79=CIRCLE('',#78,6.000000000000004);
#80=EDGE_CURVE('',#74,#74,#79,.T.);
#81=ORIENTED_EDGE('',*,*,#80,.T.);
#82=EDGE_LOOP('',(#81));
#83=FACE_OUTER_BOUND('',#82,.T.);
#84=CARTESIAN_POINT('',(23.998749217771916,-5.049999999999999,1.226671E-015));
#85=VERTEX_POINT('',#84);
#86=CARTESIAN_POINT('',(23.998749217771916,0.0,0.0));
#87=DIRECTION('',(-1.0,0.0,0.0));
#88=DIRECTION('',(0.0,1.0,0.0));
#89=AXIS2_PLACEMENT_3D('',#86,#87,#88);
#90=CIRCLE('',#89,5.049999999999999);
#91=EDGE_CURVE('',#85,#85,#90,.T.);
#92=ORIENTED_EDGE('',*,*,#91,.T.);
#93=EDGE_LOOP('',(#92));
#94=FACE_BOUND('',#93,.T.);
#95=ADVANCED_FACE('',(#83,#94),#72,.F.);
#96=CARTESIAN_POINT('',(29.750000000000007,0.0,0.0));
#97=DIRECTION('',(1.0,0.0,0.0));
#98=DIRECTION('',(0.0,1.0,0.0));
#99=AXIS2_PLACEMENT_3D('',#96,#97,#98);
#100=CYLINDRICAL_SURFACE('',#99,5.049999999999999);
#101=CARTESIAN_POINT('',(36.5,5.050000000000001,0.0));
#102=VERTEX_POINT('',#101);
#103=CARTESIAN_POINT('',(36.5,0.0,0.0));
#104=DIRECTION('',(1.0,0.0,0.0));
#105=DIRECTION('',(0.0,1.0,0.0));
#106=AXIS2_PLACEMENT_3D('',#103,#104,#105);
#107=CIRCLE('',#106,5.050000000000001);
#108=EDGE_CURVE('',#102,#102,#107,.T.);
#109=ORIENTED_EDGE('',*,*,#108,.F.);
#110=EDGE_LOOP('',(#109));
#111=FACE_OUTER_BOUND('',#110,.T.);
#112=ORIENTED_EDGE('',*,*,#91,.F.);
#113=EDGE_LOOP('',(#112));
#114=FACE_BOUND('',#113,.T.);
#115=ADVANCED_FACE('',(#111,#114),#100,.T.);
#116=CARTESIAN_POINT('',(40.152359426453692,5.158670523878132,-0.003655397018474));
#117=CARTESIAN_POINT('',(40.237586120328295,5.144755768915302,-0.003664301033));
#118=CARTESIAN_POINT('',(40.419568419586021,5.196262415459176,-0.003673538224009));
#119=CARTESIAN_POINT('',(40.499670225536128,5.367449536329286,-0.003808135446189));
#120=CARTESIAN_POINT('',(40.50000184478327,5.453867888656215,-0.003864571758765));
#121=CARTESIAN_POINT('',(40.152359426453692,5.161494197085479,-1.541188235510639));
#122=CARTESIAN_POINT('',(40.237586120328295,5.147551436300372,-1.536945970143357));
#123=CARTESIAN_POINT('',(40.419568419586014,5.199115897272522,-1.552457620423871));
#124=CARTESIAN_POINT('',(40.499670225536107,5.370382272912031,-1.6035406239997));
#125=CARTESIAN_POINT('',(40.500001844783256,5.456853142426993,-1.629380474895552));
#126=CARTESIAN_POINT('',(40.152359426453692,3.666301977730898,-4.621586456487345));
#127=CARTESIAN_POINT('',(40.237586120328324,3.656416019246071,-4.609297892155532));
#128=CARTESIAN_POINT('',(40.419568419586049,3.693017271253148,-4.655184183941362));
#129=CARTESIAN_POINT('',(40.49967022553615,3.814683489035771,-4.808674277953726));
#130=CARTESIAN_POINT('',(40.500001844783291,3.876100738341262,-4.886049972180824));
#131=CARTESIAN_POINT('',(40.1523594264537,-0.481764633478546,-5.557112948514148));
#132=CARTESIAN_POINT('',(40.237586120328302,-0.480600348506376,-5.542030659212704));
#133=CARTESIAN_POINT('',(40.419568419586021,-0.48521409460313,-5.597650357545878));
#134=CARTESIAN_POINT('',(40.499670225536136,-0.501296939725802,-5.781993780759351));
#135=CARTESIAN_POINT('',(40.500001844783299,-0.50933290898439,-5.875110597439849));
#136=CARTESIAN_POINT('',(40.1523594264537,-3.33221810958582,-4.159599777344387));
#137=CARTESIAN_POINT('',(40.237586120328324,-3.323238907318264,-4.14845151181286));
#138=CARTESIAN_POINT('',(40.419568419586028,-3.35649634922516,-4.189878873312515));
#139=CARTESIAN_POINT('',(40.499670225536157,-3.467080189384352,-4.327963245275824));
#140=CARTESIAN_POINT('',(40.500001844783284,-3.52289941017721,-4.397626781999932));
#141=CARTESIAN_POINT('',(40.152359426453714,-4.642588361580103,-2.511387732014326));
#142=CARTESIAN_POINT('',(40.237586120328316,-4.630094959170895,-2.504589522579228));
#143=CARTESIAN_POINT('',(40.419568419586021,-4.676406231112874,-2.529699452462856));
#144=CARTESIAN_POINT('',(40.499670225536157,-4.830488260014818,-2.613021134831887));
#145=CARTESIAN_POINT('',(40.500001844783299,-4.908253680530839,-2.655098216526782));
#146=CARTESIAN_POINT('',(40.152359426453714,-5.329892396849481,-0.284666547433746));
#147=CARTESIAN_POINT('',(40.237586120328316,-5.315547991083042,-0.283937711055381));
#148=CARTESIAN_POINT('',(40.419568419586028,-5.368717426477492,-0.286723285665659));
#149=CARTESIAN_POINT('',(40.499670225536136,-5.545609245587233,-0.296197400147795));
#150=CARTESIAN_POINT('',(40.500001844783291,-5.634887682518144,-0.300956173657004));
#151=CARTESIAN_POINT('',(40.152359426453721,-4.970915485392301,2.109484844709473));
#152=CARTESIAN_POINT('',(40.237586120328345,-4.957550449842274,2.103683876794251));
#153=CARTESIAN_POINT('',(40.419568419586049,-5.007119586178176,2.124907164417574));
#154=CARTESIAN_POINT('',(40.49967022553615,-5.172106843093251,2.194830435787742));
#155=CARTESIAN_POINT('',(40.500001844783313,-5.255368843099517,2.230197025166657));
#156=CARTESIAN_POINT('',(40.1523594264537,-3.322576451800685,4.168984628568738));
#157=CARTESIAN_POINT('',(40.237586120328316,-3.313685092320973,4.157697489948932));
#158=CARTESIAN_POINT('',(40.419568419586028,-3.346756432704648,4.199383531626061));
#159=CARTESIAN_POINT('',(40.499670225536136,-3.45706413479031,4.337698871140586));
#160=CARTESIAN_POINT('',(40.500001844783284,-3.512706022647544,4.407548667589524));
#161=CARTESIAN_POINT('',(40.152359426453692,-1.184142780047417,5.198031029805025));
#162=CARTESIAN_POINT('',(40.237586120328324,-1.180970313417044,5.183959525448771));
#163=CARTESIAN_POINT('',(40.419568419586021,-1.192762006654523,5.235932648719351));
#164=CARTESIAN_POINT('',(40.49967022553615,-1.232072307121267,5.408390083496615));
#165=CARTESIAN_POINT('',(40.500001844783299,-1.251903616211108,5.49548074188309));
#166=CARTESIAN_POINT('',(40.152359426453692,1.189108279090314,5.197948942799022));
#167=CARTESIAN_POINT('',(40.237586120328324,1.185961393759671,5.183949620151766));
#168=CARTESIAN_POINT('',(40.419568419586028,1.197746042372103,5.235817380523736));
#169=CARTESIAN_POINT('',(40.499670225536136,1.237248735604223,5.408323079086332));
#170=CARTESIAN_POINT('',(40.500001844783291,1.257153258663726,5.495393957568403));
#171=CARTESIAN_POINT('',(40.1523594264537,3.326195379053721,4.166818556140818));
#172=CARTESIAN_POINT('',(40.237586120328324,3.317143656270707,4.155600702035914));
#173=CARTESIAN_POINT('',(40.419568419586028,3.350469922754717,4.19717294881711));
#174=CARTESIAN_POINT('',(40.49967022553615,3.460791007013523,4.335461360640443));
#175=CARTESIAN_POINT('',(40.500001844783291,3.516532037711959,4.405258644839582));
#176=CARTESIAN_POINT('',(40.152359426453692,4.808002455358781,2.310856207218479));
#177=CARTESIAN_POINT('',(40.237586120328316,4.795056817820813,2.304644229978482));
#178=CARTESIAN_POINT('',(40.419568419586021,4.843028460165217,2.327686104719491));
#179=CARTESIAN_POINT('',(40.499670225536136,5.002595357759187,2.404385396358492));
#180=CARTESIAN_POINT('',(40.500001844783284,5.0831333535425,2.443091568944811));
#181=CARTESIAN_POINT('',(40.1523594264537,5.157258687274458,0.765111022227609));
#182=CARTESIAN_POINT('',(40.237586120328302,5.143357935222768,0.76297653352218));
#183=CARTESIAN_POINT('',(40.419568419586028,5.194835674552504,0.770718502875923));
#184=CARTESIAN_POINT('',(40.499670225536136,5.365983168037912,0.796058108830566));
#185=CARTESIAN_POINT('',(40.50000184478327,5.452375261770827,0.808893379809629));
#186=CARTESIAN_POINT('',(40.152359426453692,5.158670523878132,-0.003655397018474));
#187=CARTESIAN_POINT('',(40.237586120328295,5.144755768915302,-0.003664301033));
#188=CARTESIAN_POINT('',(40.419568419586021,5.196262415459176,-0.003673538224009));
#189=CARTESIAN_POINT('',(40.499670225536128,5.367449536329286,-0.003808135446189));
#190=CARTESIAN_POINT('',(40.50000184478327,5.453867888656215,-0.003864571758765));
#191=B_SPLINE_SURFACE_WITH_KNOTS('',3,3,((#116,#121,#126,#131,#136,#141,#146,#151,#156,#161,#166,#171,#176,#181,#186),(#117,#122,#127,#132,#137,#142,#147,#152,#157,#162,#167,#172,#177,#182,#187),(#118,#123,#128,#133,#138,#143,#148,#153,#158,#163,#168,#173,#178,#183,#188),(#119,#124,#129,#134,#139,#144,#149,#154,#159,#164,#169,#174,#179,#184,#189),(#120,#125,#130,#135,#140,#145,#150,#155,#160,#165,#170,#175,#180,#185,#190)),.UNSPECIFIED.,.F.,.T.,.F.,(4,1,4),(4,1,1,1,1,1,1,1,1,1,1,1,4),(0.0,0.5,1.0),(1.702544401785375,2.18898565943834,2.675426917091304,2.918647545917787,3.161868174744269,3.32401526062859,3.648309432397233,3.891530061223715,4.134750690050198,4.37797131887668,4.621191947703162,4.864412576529644,5.107633205356127),.UNSPECIFIED.);
#192=CARTESIAN_POINT('',(40.500001844783291,5.450958614182473,-0.004425247251779));
#193=VERTEX_POINT('',#192);
#194=CARTESIAN_POINT('',(40.1523594264537,5.155918717494119,-0.004185725254935));
#195=VERTEX_POINT('',#194);
#196=CARTESIAN_POINT('',(40.200004058523234,5.452111106348204,-0.004426182878547));
#197=DIRECTION('',(1.269746E-015,-0.000811828910607,-0.999999670466856));
#198=DIRECTION('',(0.999992620866844,-0.003841640552438,0.000003118755894));
#199=AXIS2_PLACEMENT_3D('',#196,#197,#198);
#200=CIRCLE('',#199,0.300000000000002);
#201=EDGE_CURVE('',#193,#195,#200,.T.);
#202=ORIENTED_EDGE('',*,*,#201,.T.);
#203=CARTESIAN_POINT('',(40.152359426453692,5.158670523878132,-0.003655397018474));
#204=CARTESIAN_POINT('',(40.1523594264537,5.157258687274458,0.765111022227609));
#205=CARTESIAN_POINT('',(40.152359426453692,4.808002455358781,2.310856207218479));
#206=CARTESIAN_POINT('',(40.1523594264537,3.326195379053721,4.166818556140818));
#207=CARTESIAN_POINT('',(40.152359426453692,1.189108279090314,5.197948942799022));
#208=CARTESIAN_POINT('',(40.152359426453692,-1.184142780047417,5.198031029805025));
#209=CARTESIAN_POINT('',(40.1523594264537,-3.322576451800685,4.168984628568738));
#210=CARTESIAN_POINT('',(40.152359426453721,-4.970915485392301,2.109484844709473));
#211=CARTESIAN_POINT('',(40.152359426453714,-5.329892396849481,-0.284666547433746));
#212=CARTESIAN_POINT('',(40.152359426453714,-4.642588361580103,-2.511387732014326));
#213=CARTESIAN_POINT('',(40.1523594264537,-3.33221810958582,-4.159599777344387));
#214=CARTESIAN_POINT('',(40.1523594264537,-0.481764633478546,-5.557112948514148));
#215=CARTESIAN_POINT('',(40.152359426453692,3.666301977730898,-4.621586456487345));
#216=CARTESIAN_POINT('',(40.152359426453692,5.161494197085479,-1.54118823551064));
#217=CARTESIAN_POINT('',(40.152359426453692,5.158670523878132,-0.003655397018474));
#218=B_SPLINE_CURVE_WITH_KNOTS('',3,(#203,#204,#205,#206,#207,#208,#209,#210,#211,#212,#213,#214,#215,#216,#217),.UNSPECIFIED.,.T.,.U.,(4,1,1,1,1,1,1,1,1,1,1,1,4),(-5.107633205356127,-4.864412576529644,-4.621191947703162,-4.37797131887668,-4.134750690050198,-3.891530061223715,-3.648309432397233,-3.32401526062859,-3.161868174744269,-2.918647545917787,-2.675426917091304,-2.18898565943834,-1.702544401785375),.UNSPECIFIED.);
#219=EDGE_CURVE('',#195,#195,#218,.T.);
#220=ORIENTED_EDGE('',*,*,#219,.T.);
#221=ORIENTED_EDGE('',*,*,#201,.F.);
#222=CARTESIAN_POINT('',(40.499975681985561,5.450957982676227,-0.003862667140357));
#223=CARTESIAN_POINT('',(40.499975681985553,5.453941472719338,-1.628510406703428));
#224=CARTESIAN_POINT('',(40.499975681985589,3.87403267661314,-4.883444512976007));
#225=CARTESIAN_POINT('',(40.499975681985596,-0.509062288477354,-5.871975159810157));
#226=CARTESIAN_POINT('',(40.499975681985575,-3.521019845748755,-4.395281033117852));
#227=CARTESIAN_POINT('',(40.499975681985596,-4.905635132118301,-2.653681389274144));
#228=CARTESIAN_POINT('',(40.499975681985589,-5.63188146352984,-0.300795925844434));
#229=CARTESIAN_POINT('',(40.499975681985603,-5.25256520894417,2.229006175517879));
#230=CARTESIAN_POINT('',(40.499975681985575,-3.510832415334467,4.405196672796336));
#231=CARTESIAN_POINT('',(40.499975681985596,-1.251235845204867,5.49254820933114));
#232=CARTESIAN_POINT('',(40.499975681985589,1.256483013489532,5.492462074648731));
#233=CARTESIAN_POINT('',(40.499975681985589,3.514655126358627,4.402908403794242));
#234=CARTESIAN_POINT('',(40.499975681985575,5.080421447482429,2.441788237673252));
#235=CARTESIAN_POINT('',(40.499975681985561,5.449466237654673,0.808461202641179));
#236=CARTESIAN_POINT('',(40.499975681985561,5.450957982676227,-0.003862667140357));
#237=B_SPLINE_CURVE_WITH_KNOTS('',3,(#222,#223,#224,#225,#226,#227,#228,#229,#230,#231,#232,#233,#234,#235,#236),.UNSPECIFIED.,.T.,.U.,(4,1,1,1,1,1,1,1,1,1,1,1,4),(1.702544401785375,2.18898565943834,2.675426917091304,2.918647545917787,3.161868174744269,3.32401526062859,3.648309432397233,3.891530061223715,4.134750690050198,4.37797131887668,4.621191947703162,4.864412576529644,5.107633205356127),.UNSPECIFIED.);
#238=EDGE_CURVE('',#193,#193,#237,.T.);
#239=ORIENTED_EDGE('',*,*,#238,.T.);
#240=EDGE_LOOP('',(#202,#220,#221,#239));
#241=FACE_OUTER_BOUND('',#240,.T.);
#242=ADVANCED_FACE('',(#241),#191,.T.);
#243=CARTESIAN_POINT('',(38.644851930028977,0.0,0.0));
#244=DIRECTION('',(-1.0,0.0,0.0));
#245=DIRECTION('',(0.0,1.0,0.0));
#246=AXIS2_PLACEMENT_3D('',#243,#244,#245);
#247=CONICAL_SURFACE('',#246,5.398413536024719,9.138146831770071);
#248=CARTESIAN_POINT('',(36.789703860057948,5.696827072049439,0.0));
#249=VERTEX_POINT('',#248);
#250=CARTESIAN_POINT('',(36.789703860057948,0.0,0.0));
#251=DIRECTION('',(1.0,0.0,0.0));
#252=DIRECTION('',(0.0,1.0,0.0));
#253=AXIS2_PLACEMENT_3D('',#250,#251,#252);
#254=CIRCLE('',#253,5.696827072049439);
#255=EDGE_CURVE('',#249,#249,#254,.T.);
#256=ORIENTED_EDGE('',*,*,#255,.T.);
#257=EDGE_LOOP('',(#256));
#258=FACE_OUTER_BOUND('',#257,.T.);
#259=ORIENTED_EDGE('',*,*,#219,.F.);
#260=EDGE_LOOP('',(#259));
#261=FACE_BOUND('',#260,.T.);
#262=ADVANCED_FACE('',(#258,#261),#247,.T.);
#263=CARTESIAN_POINT('',(1.0,0.0,0.0));
#264=DIRECTION('',(1.0,0.0,0.0));
#265=DIRECTION('',(0.0,0.0,-1.0));
#266=AXIS2_PLACEMENT_3D('',#263,#264,#265);
#267=TOROIDAL_SURFACE('',#266,4.0,1.0);
#268=CARTESIAN_POINT('',(-4.163336E-016,4.0,0.0));
#269=VERTEX_POINT('',#268);
#270=CARTESIAN_POINT('',(-4.163336E-016,0.0,0.0));
#271=DIRECTION('',(1.0,0.0,0.0));
#272=DIRECTION('',(0.0,-1.0,0.0));
#273=AXIS2_PLACEMENT_3D('',#270,#271,#272);
#274=CIRCLE('',#273,4.0);
#275=EDGE_CURVE('',#269,#269,#274,.T.);
#276=ORIENTED_EDGE('',*,*,#275,.T.);
#277=EDGE_LOOP('',(#276));
#278=FACE_OUTER_BOUND('',#277,.T.);
#279=CARTESIAN_POINT('',(1.0,5.0,-1.224647E-015));
#280=VERTEX_POINT('',#279);
#281=CARTESIAN_POINT('',(1.0,0.0,0.0));
#282=DIRECTION('',(-1.0,0.0,0.0));
#283=DIRECTION('',(0.0,-1.0,0.0));
#284=AXIS2_PLACEMENT_3D('',#281,#282,#283);
#285=CIRCLE('',#284,5.0);
#286=EDGE_CURVE('',#280,#280,#285,.T.);
#287=ORIENTED_EDGE('',*,*,#286,.T.);
#288=EDGE_LOOP('',(#287));
#289=FACE_BOUND('',#288,.T.);
#290=ADVANCED_FACE('',(#278,#289),#267,.T.);
#291=CARTESIAN_POINT('',(2.524999999999999,0.0,0.0));
#292=DIRECTION('',(1.0,0.0,0.0));
#293=DIRECTION('',(0.0,1.0,0.0));
#294=AXIS2_PLACEMENT_3D('',#291,#292,#293);
#295=CYLINDRICAL_SURFACE('',#294,5.0);
#296=CARTESIAN_POINT('',(5.049999999999999,5.000000000000001,0.0));
#297=VERTEX_POINT('',#296);
#298=CARTESIAN_POINT('',(5.049999999999999,0.0,0.0));
#299=DIRECTION('',(1.0,0.0,0.0));
#300=DIRECTION('',(0.0,1.0,0.0));
#301=AXIS2_PLACEMENT_3D('',#298,#299,#300);
#302=CIRCLE('',#301,5.000000000000001);
#303=EDGE_CURVE('',#297,#297,#302,.T.);
#304=ORIENTED_EDGE('',*,*,#303,.F.);
#305=EDGE_LOOP('',(#304));
#306=FACE_OUTER_BOUND('',#305,.T.);
#307=ORIENTED_EDGE('',*,*,#286,.F.);
#308=EDGE_LOOP('',(#307));
#309=FACE_BOUND('',#308,.T.);
#310=ADVANCED_FACE('',(#306,#309),#295,.T.);
#311=CARTESIAN_POINT('',(-4.592425E-016,4.462499999999999,0.0));
#312=DIRECTION('',(-1.0,0.0,0.0));
#313=DIRECTION('',(0.0,0.0,1.0));
#314=AXIS2_PLACEMENT_3D('',#311,#312,#313);
#315=PLANE('',#314);
#316=ORIENTED_EDGE('',*,*,#275,.F.);
#317=EDGE_LOOP('',(#316));
#318=FACE_OUTER_BOUND('',#317,.T.);
#319=CARTESIAN_POINT('',(0.0,3.924999999999996,0.0));
#320=VERTEX_POINT('',#319);
#321=CARTESIAN_POINT('',(0.0,0.0,0.0));
#322=DIRECTION('',(1.0,0.0,0.0));
#323=DIRECTION('',(0.0,1.0,0.0));
#324=AXIS2_PLACEMENT_3D('',#321,#322,#323);
#325=CIRCLE('',#324,3.924999999999996);
#326=EDGE_CURVE('',#320,#320,#325,.T.);
#327=ORIENTED_EDGE('',*,*,#326,.T.);
#328=EDGE_LOOP('',(#327));
#329=FACE_BOUND('',#328,.T.);
#330=ADVANCED_FACE('',(#318,#329),#315,.T.);
#331=CARTESIAN_POINT('',(5.549999999999999,0.0,0.0));
#332=DIRECTION('',(1.0,0.0,0.0));
#333=DIRECTION('',(0.0,1.0,0.0));
#334=AXIS2_PLACEMENT_3D('',#331,#332,#333);
#335=CONICAL_SURFACE('',#334,5.5,44.999999999999979);
#336=CARTESIAN_POINT('',(6.05,6.000000000000001,0.0));
#337=VERTEX_POINT('',#336);
#338=CARTESIAN_POINT('',(6.05,0.0,0.0));
#339=DIRECTION('',(1.0,0.0,0.0));
#340=DIRECTION('',(0.0,1.0,0.0));
#341=AXIS2_PLACEMENT_3D('',#338,#339,#340);
#342=CIRCLE('',#341,6.000000000000001);
#343=EDGE_CURVE('',#337,#337,#342,.T.);
#344=ORIENTED_EDGE('',*,*,#343,.F.);
#345=EDGE_LOOP('',(#344));
#346=FACE_OUTER_BOUND('',#345,.T.);
#347=ORIENTED_EDGE('',*,*,#303,.T.);
#348=EDGE_LOOP('',(#347));
#349=FACE_BOUND('',#348,.T.);
#350=ADVANCED_FACE('',(#346,#349),#335,.T.);
#351=CARTESIAN_POINT('',(6.574999999999999,0.0,0.0));
#352=DIRECTION('',(1.0,0.0,0.0));
#353=DIRECTION('',(0.0,1.0,0.0));
#354=AXIS2_PLACEMENT_3D('',#351,#352,#353);
#355=CYLINDRICAL_SURFACE('',#354,6.000000000000001);
#356=CARTESIAN_POINT('',(7.099999999999999,6.000000000000001,0.0));
#357=VERTEX_POINT('',#356);
#358=CARTESIAN_POINT('',(7.099999999999999,0.0,0.0));
#359=DIRECTION('',(1.0,0.0,0.0));
#360=DIRECTION('',(0.0,1.0,0.0));
#361=AXIS2_PLACEMENT_3D('',#358,#359,#360);
#362=CIRCLE('',#361,6.000000000000001);
#363=EDGE_CURVE('',#357,#357,#362,.T.);
#364=ORIENTED_EDGE('',*,*,#363,.F.);
#365=EDGE_LOOP('',(#364));
#366=FACE_OUTER_BOUND('',#365,.T.);
#367=ORIENTED_EDGE('',*,*,#343,.T.);
#368=EDGE_LOOP('',(#367));
#369=FACE_BOUND('',#368,.T.);
#370=ADVANCED_FACE('',(#366,#369),#355,.T.);
#371=CARTESIAN_POINT('',(9.555106189311614,0.0,0.0));
#372=DIRECTION('',(1.0,0.0,0.0));
#373=DIRECTION('',(0.0,0.0,-1.0));
#374=AXIS2_PLACEMENT_3D('',#371,#372,#373);
#375=TOROIDAL_SURFACE('',#374,7.238932443357509,2.75);
#376=CARTESIAN_POINT('',(8.149999999999999,4.875,0.0));
#377=VERTEX_POINT('',#376);
#378=CARTESIAN_POINT('',(8.149999999999999,0.0,0.0));
#379=DIRECTION('',(1.0,0.0,0.0));
#380=DIRECTION('',(0.0,1.0,0.0));
#381=AXIS2_PLACEMENT_3D('',#378,#379,#380);
#382=CIRCLE('',#381,4.875);
#383=EDGE_CURVE('',#377,#377,#382,.T.);
#384=ORIENTED_EDGE('',*,*,#383,.F.);
#385=EDGE_LOOP('',(#384));
#386=FACE_OUTER_BOUND('',#385,.T.);
#387=ORIENTED_EDGE('',*,*,#363,.T.);
#388=EDGE_LOOP('',(#387));
#389=FACE_BOUND('',#388,.T.);
#390=ADVANCED_FACE('',(#386,#389),#375,.F.);
#391=CARTESIAN_POINT('',(9.299999999999999,0.0,0.0));
#392=DIRECTION('',(1.0,0.0,0.0));
#393=DIRECTION('',(0.0,1.0,0.0));
#394=AXIS2_PLACEMENT_3D('',#391,#392,#393);
#395=CYLINDRICAL_SURFACE('',#394,4.875000000000001);
#396=CARTESIAN_POINT('',(10.449999999999999,4.875000000000002,0.0));
#397=VERTEX_POINT('',#396);
#398=CARTESIAN_POINT('',(10.449999999999999,0.0,0.0));
#399=DIRECTION('',(1.0,0.0,0.0));
#400=DIRECTION('',(0.0,1.0,0.0));
#401=AXIS2_PLACEMENT_3D('',#398,#399,#400);
#402=CIRCLE('',#401,4.875000000000002);
#403=EDGE_CURVE('',#397,#397,#402,.T.);
#404=ORIENTED_EDGE('',*,*,#403,.F.);
#405=EDGE_LOOP('',(#404));
#406=FACE_OUTER_BOUND('',#405,.T.);
#407=ORIENTED_EDGE('',*,*,#383,.T.);
#408=EDGE_LOOP('',(#407));
#409=FACE_BOUND('',#408,.T.);
#410=ADVANCED_FACE('',(#406,#409),#395,.T.);
#411=CARTESIAN_POINT('',(9.115907397699246,0.0,0.0));
#412=DIRECTION('',(1.0,0.0,0.0));
#413=DIRECTION('',(0.0,0.0,-1.0));
#414=AXIS2_PLACEMENT_3D('',#411,#412,#413);
#415=TOROIDAL_SURFACE('',#414,7.279723877805187,2.75);
#416=CARTESIAN_POINT('',(11.550000000000001,6.000000000000001,0.0));
#417=VERTEX_POINT('',#416);
#418=CARTESIAN_POINT('',(11.550000000000001,0.0,0.0));
#419=DIRECTION('',(1.0,0.0,0.0));
#420=DIRECTION('',(0.0,1.0,0.0));
#421=AXIS2_PLACEMENT_3D('',#418,#419,#420);
#422=CIRCLE('',#421,6.000000000000001);
#423=EDGE_CURVE('',#417,#417,#422,.T.);
#424=ORIENTED_EDGE('',*,*,#423,.F.);
#425=EDGE_LOOP('',(#424));
#426=FACE_OUTER_BOUND('',#425,.T.);
#427=ORIENTED_EDGE('',*,*,#403,.T.);
#428=EDGE_LOOP('',(#427));
#429=FACE_BOUND('',#428,.T.);
#430=ADVANCED_FACE('',(#426,#429),#415,.F.);
#431=CARTESIAN_POINT('',(17.275000000000006,0.0,0.0));
#432=DIRECTION('',(1.0,0.0,0.0));
#433=DIRECTION('',(0.0,1.0,0.0));
#434=AXIS2_PLACEMENT_3D('',#431,#432,#433);
#435=CYLINDRICAL_SURFACE('',#434,6.000000000000002);
#436=ORIENTED_EDGE('',*,*,#80,.F.);
#437=EDGE_LOOP('',(#436));
#438=FACE_OUTER_BOUND('',#437,.T.);
#439=ORIENTED_EDGE('',*,*,#423,.T.);
#440=EDGE_LOOP('',(#439));
#441=FACE_BOUND('',#440,.T.);
#442=ADVANCED_FACE('',(#438,#441),#435,.T.);
#443=CARTESIAN_POINT('',(36.5,5.250000000000002,0.0));
#444=DIRECTION('',(-1.0,0.0,0.0));
#445=DIRECTION('',(0.0,0.0,1.0));
#446=AXIS2_PLACEMENT_3D('',#443,#444,#445);
#447=PLANE('',#446);
#448=CARTESIAN_POINT('',(36.5,5.45,0.0));
#449=VERTEX_POINT('',#448);
#450=CARTESIAN_POINT('',(36.5,0.0,0.0));
#451=DIRECTION('',(1.0,0.0,0.0));
#452=DIRECTION('',(0.0,1.0,0.0));
#453=AXIS2_PLACEMENT_3D('',#450,#451,#452);
#454=CIRCLE('',#453,5.45);
#455=EDGE_CURVE('',#449,#449,#454,.T.);
#456=ORIENTED_EDGE('',*,*,#455,.F.);
#457=EDGE_LOOP('',(#456));
#458=FACE_OUTER_BOUND('',#457,.T.);
#459=ORIENTED_EDGE('',*,*,#108,.T.);
#460=EDGE_LOOP('',(#459));
#461=FACE_BOUND('',#460,.T.);
#462=ADVANCED_FACE('',(#458,#461),#447,.T.);
#463=CARTESIAN_POINT('',(36.75,0.0,0.0));
#464=DIRECTION('',(1.0,0.0,0.0));
#465=DIRECTION('',(0.0,0.0,-1.0));
#466=AXIS2_PLACEMENT_3D('',#463,#464,#465);
#467=TOROIDAL_SURFACE('',#466,5.45,0.249999999999999);
#468=ORIENTED_EDGE('',*,*,#255,.F.);
#469=EDGE_LOOP('',(#468));
#470=FACE_OUTER_BOUND('',#469,.T.);
#471=ORIENTED_EDGE('',*,*,#455,.T.);
#472=EDGE_LOOP('',(#471));
#473=FACE_BOUND('',#472,.T.);
#474=ADVANCED_FACE('',(#470,#473),#467,.T.);
#475=CARTESIAN_POINT('',(40.750000000000014,0.0,0.0));
#476=DIRECTION('',(1.0,0.0,0.0));
#477=DIRECTION('',(0.0,0.0,-1.0));
#478=AXIS2_PLACEMENT_3D('',#475,#476,#477);
#479=TOROIDAL_SURFACE('',#478,5.45,0.250000000000003);
#480=CARTESIAN_POINT('',(40.789703860057962,5.696827072049439,0.0));
#481=VERTEX_POINT('',#480);
#482=CARTESIAN_POINT('',(40.789703860057962,0.0,0.0));
#483=DIRECTION('',(1.0,0.0,0.0));
#484=DIRECTION('',(0.0,1.0,0.0));
#485=AXIS2_PLACEMENT_3D('',#482,#483,#484);
#486=CIRCLE('',#485,5.696827072049439);
#487=EDGE_CURVE('',#481,#481,#486,.T.);
#488=ORIENTED_EDGE('',*,*,#487,.F.);
#489=EDGE_LOOP('',(#488));
#490=FACE_OUTER_BOUND('',#489,.T.);
#491=ORIENTED_EDGE('',*,*,#238,.F.);
#492=EDGE_LOOP('',(#491));
#493=FACE_BOUND('',#492,.T.);
#494=ADVANCED_FACE('',(#490,#493),#479,.T.);
#495=CARTESIAN_POINT('',(42.644851930028985,0.0,0.0));
#496=DIRECTION('',(-1.0,0.0,0.0));
#497=DIRECTION('',(0.0,1.0,0.0));
#498=AXIS2_PLACEMENT_3D('',#495,#496,#497);
#499=CONICAL_SURFACE('',#498,5.398413536024719,9.138146831770092);
#500=CARTESIAN_POINT('',(44.500000000000014,5.1,0.0));
#501=VERTEX_POINT('',#500);
#502=CARTESIAN_POINT('',(44.500000000000014,0.0,0.0));
#503=DIRECTION('',(1.0,0.0,0.0));
#504=DIRECTION('',(0.0,1.0,0.0));
#505=AXIS2_PLACEMENT_3D('',#502,#503,#504);
#506=CIRCLE('',#505,5.1);
#507=EDGE_CURVE('',#501,#501,#506,.T.);
#508=ORIENTED_EDGE('',*,*,#507,.F.);
#509=EDGE_LOOP('',(#508));
#510=FACE_OUTER_BOUND('',#509,.T.);
#511=ORIENTED_EDGE('',*,*,#487,.T.);
#512=EDGE_LOOP('',(#511));
#513=FACE_BOUND('',#512,.T.);
#514=ADVANCED_FACE('',(#510,#513),#499,.T.);
#515=CARTESIAN_POINT('',(46.124807680927205,0.0,0.0));
#516=DIRECTION('',(1.0,0.0,0.0));
#517=DIRECTION('',(0.0,0.0,-1.0));
#518=AXIS2_PLACEMENT_3D('',#515,#516,#517);
#519=TOROIDAL_SURFACE('',#518,3.200000000000001,2.5);
#520=CARTESIAN_POINT('',(48.000000000000007,4.853376474518244,0.0));
#521=VERTEX_POINT('',#520);
#522=CARTESIAN_POINT('',(48.000000000000007,0.0,0.0));
#523=DIRECTION('',(1.0,0.0,0.0));
#524=DIRECTION('',(0.0,1.0,0.0));
#525=AXIS2_PLACEMENT_3D('',#522,#523,#524);
#526=CIRCLE('',#525,4.853376474518244);
#527=EDGE_CURVE('',#521,#521,#526,.T.);
#528=ORIENTED_EDGE('',*,*,#527,.F.);
#529=EDGE_LOOP('',(#528));
#530=FACE_OUTER_BOUND('',#529,.T.);
#531=ORIENTED_EDGE('',*,*,#507,.T.);
#532=EDGE_LOOP('',(#531));
#533=FACE_BOUND('',#532,.T.);
#534=ADVANCED_FACE('',(#530,#533),#519,.T.);
#535=CARTESIAN_POINT('',(48.000000000000007,4.389188237259132,0.0));
#536=DIRECTION('',(1.0,0.0,0.0));
#537=DIRECTION('',(0.0,0.0,-1.0));
#538=AXIS2_PLACEMENT_3D('',#535,#536,#537);
#539=PLANE('',#538);
#540=ORIENTED_EDGE('',*,*,#527,.T.);
#541=EDGE_LOOP('',(#540));
#542=FACE_OUTER_BOUND('',#541,.T.);
#543=CARTESIAN_POINT('',(48.000000000000007,3.92500000000002,0.0));
#544=VERTEX_POINT('',#543);
#545=CARTESIAN_POINT('',(48.000000000000007,0.0,0.0));
#546=DIRECTION('',(1.0,0.0,0.0));
#547=DIRECTION('',(0.0,1.0,0.0));
#548=AXIS2_PLACEMENT_3D('',#545,#546,#547);
#549=CIRCLE('',#548,3.92500000000002);
#550=EDGE_CURVE('',#544,#544,#549,.T.);
#551=ORIENTED_EDGE('',*,*,#550,.F.);
#552=EDGE_LOOP('',(#551));
#553=FACE_BOUND('',#552,.T.);
#554=ADVANCED_FACE('',(#542,#553),#539,.T.);
#555=CARTESIAN_POINT('',(24.000000000000004,0.0,0.0));
#556=DIRECTION('',(1.0,0.0,0.0));
#557=DIRECTION('',(0.0,1.0,0.0));
#558=AXIS2_PLACEMENT_3D('',#555,#556,#557);
#559=CYLINDRICAL_SURFACE('',#558,3.925000000000008);
#560=ORIENTED_EDGE('',*,*,#326,.F.);
#561=EDGE_LOOP('',(#560));
#562=FACE_OUTER_BOUND('',#561,.T.);
#563=ORIENTED_EDGE('',*,*,#550,.T.);
#564=EDGE_LOOP('',(#563));
#565=FACE_BOUND('',#564,.T.);
#566=ADVANCED_FACE('',(#562,#565),#559,.F.);
#567=CLOSED_SHELL('',(#95,#115,#242,#262,#290,#310,#330,#350,#370,#390,#410,#430,#442,#462,#474,#494,#514,#534,#554,#566));
#568=MANIFOLD_SOLID_BREP('Solid1',#567);
#569=COLOUR_RGB('Brass - Satin',0.796000003814697,0.603999972343445,0.231000006198883);
#570=FILL_AREA_STYLE_COLOUR('Brass - Satin',#569);
#571=FILL_AREA_STYLE('Brass - Satin',(#570));
#572=SURFACE_STYLE_FILL_AREA(#571);
#573=SURFACE_SIDE_STYLE('Brass - Satin',(#572));
#574=SURFACE_STYLE_USAGE(.BOTH.,#573);
#575=PRESENTATION_STYLE_ASSIGNMENT((#574));
#576=STYLED_ITEM('',(#575),#568);
#577=MECHANICAL_DESIGN_GEOMETRIC_PRESENTATION_REPRESENTATION('',(#576),#36);
#578=ADVANCED_BREP_SHAPE_REPRESENTATION('ABSR',(#568),#36);
#579=SHAPE_REPRESENTATION_RELATIONSHIP('SRR','None',#578,#41);
ENDSEC;
END-ISO-10303-21;
