ISO-10303-21;
HEADER;
/****************************************************************
 * Generated by software with PDElib inside                    *
 * PDElib Version v51a, created Wed 11/30/2011                  *
 * ITI Transcendata (http://www.transcendata.com/)              *
 ****************************************************************/
FILE_DESCRIPTION((''),'2;1');
FILE_NAME('J:\\3D Zeichnungen_step\\Serie 25\\25sftf10rxx.stp','2014-01-10T10:23:59',('IA176480'),(''),'Autodesk Inventor 2013','Autodesk Inventor 2013','');
FILE_SCHEMA(('AUTOMOTIVE_DESIGN { 1 0 10303 214 1 1 1 1 }'));
ENDSEC;
DATA;
#5=APPLICATION_CONTEXT('automotive design');
#6=APPLICATION_PROTOCOL_DEFINITION('International Standard','automotive_design',2001,#5);
#7=PRODUCT_CONTEXT('',#5,'mechanical');
#8=PRODUCT('D108998','D108998',$,(#7));
#9=PRODUCT_RELATED_PRODUCT_CATEGORY('part',$,(#8));
#10=PRODUCT_DEFINITION_FORMATION('',$,#8);
#11=PRODUCT_DEFINITION_CONTEXT('part definition',#5,'design');
#12=PRODUCT_DEFINITION('',$,#10,#11);
#18=(NAMED_UNIT(*)PLANE_ANGLE_UNIT()SI_UNIT($,.RADIAN.));
#19=DIMENSIONAL_EXPONENTS(0.0,0.0,0.0,0.0,0.0,0.0,0.0);
#20=PLANE_ANGLE_MEASURE_WITH_UNIT(PLANE_ANGLE_MEASURE(0.0174532925),#18);
#24=(CONVERSION_BASED_UNIT('DEGREE',#20)NAMED_UNIT(#19)PLANE_ANGLE_UNIT());
#28=(NAMED_UNIT(*)SI_UNIT($,.STERADIAN.)SOLID_ANGLE_UNIT());
#32=(LENGTH_UNIT()NAMED_UNIT(*)SI_UNIT(.MILLI.,.METRE.));
#34=UNCERTAINTY_MEASURE_WITH_UNIT(LENGTH_MEASURE(0.01),#32,'DISTANCE_ACCURACY_VALUE','');
#36=(GEOMETRIC_REPRESENTATION_CONTEXT(3)GLOBAL_UNCERTAINTY_ASSIGNED_CONTEXT((#34))GLOBAL_UNIT_ASSIGNED_CONTEXT((#24,#28,#32))REPRESENTATION_CONTEXT('None','None'));
#37=AXIS2_PLACEMENT_3D('',#38,#39,#40);
#38=CARTESIAN_POINT('',(0.0,0.0,0.0));
#39=DIRECTION('',(0.0,0.0,1.0));
#40=DIRECTION('',(1.0,0.0,0.0));
#41=SHAPE_REPRESENTATION('',(#37),#36);
#42=PRODUCT_DEFINITION_SHAPE('','',#12);
#43=SHAPE_DEFINITION_REPRESENTATION(#42,#41);
#49=(NAMED_UNIT(*)PLANE_ANGLE_UNIT()SI_UNIT($,.RADIAN.));
#50=DIMENSIONAL_EXPONENTS(0.0,0.0,0.0,0.0,0.0,0.0,0.0);
#51=PLANE_ANGLE_MEASURE_WITH_UNIT(PLANE_ANGLE_MEASURE(0.0174532925),#49);
#55=(CONVERSION_BASED_UNIT('DEGREE',#51)NAMED_UNIT(#50)PLANE_ANGLE_UNIT());
#59=(NAMED_UNIT(*)SI_UNIT($,.STERADIAN.)SOLID_ANGLE_UNIT());
#63=(LENGTH_UNIT()NAMED_UNIT(*)SI_UNIT(.MILLI.,.METRE.));
#65=UNCERTAINTY_MEASURE_WITH_UNIT(LENGTH_MEASURE(0.000001),#63,'DISTANCE_ACCURACY_VALUE','');
#67=(GEOMETRIC_REPRESENTATION_CONTEXT(3)GLOBAL_UNCERTAINTY_ASSIGNED_CONTEXT((#65))GLOBAL_UNIT_ASSIGNED_CONTEXT((#55,#59,#63))REPRESENTATION_CONTEXT('','3D'));
#68=CARTESIAN_POINT('',(24.298749217771896,0.0,0.0));
#69=DIRECTION('',(-1.0,0.0,0.0));
#70=DIRECTION('',(0.0,1.0,0.0));
#71=AXIS2_PLACEMENT_3D('',#68,#69,#70);
#72=TOROIDAL_SURFACE('',#71,6.050000000000001,1.0);
#73=CARTESIAN_POINT('',(23.299999999999986,6.000000000000001,0.0));
#74=VERTEX_POINT('',#73);
#75=CARTESIAN_POINT('',(23.299999999999986,0.0,0.0));
#76=DIRECTION('',(1.0,0.0,0.0));
#77=DIRECTION('',(0.0,1.0,0.0));
#78=AXIS2_PLACEMENT_3D('',#75,#76,#77);
#79=CIRCLE('',#78,6.000000000000001);
#80=EDGE_CURVE('',#74,#74,#79,.T.);
#81=ORIENTED_EDGE('',*,*,#80,.T.);
#82=EDGE_LOOP('',(#81));
#83=FACE_OUTER_BOUND('',#82,.T.);
#84=CARTESIAN_POINT('',(24.298749217771896,-5.050000000000001,1.226671E-015));
#85=VERTEX_POINT('',#84);
#86=CARTESIAN_POINT('',(24.298749217771896,0.0,0.0));
#87=DIRECTION('',(-1.0,0.0,0.0));
#88=DIRECTION('',(0.0,1.0,0.0));
#89=AXIS2_PLACEMENT_3D('',#86,#87,#88);
#90=CIRCLE('',#89,5.050000000000001);
#91=EDGE_CURVE('',#85,#85,#90,.T.);
#92=ORIENTED_EDGE('',*,*,#91,.T.);
#93=EDGE_LOOP('',(#92));
#94=FACE_BOUND('',#93,.T.);
#95=ADVANCED_FACE('',(#83,#94),#72,.F.);
#96=CARTESIAN_POINT('',(30.04999999999999,0.0,0.0));
#97=DIRECTION('',(1.0,0.0,0.0));
#98=DIRECTION('',(0.0,1.0,0.0));
#99=AXIS2_PLACEMENT_3D('',#96,#97,#98);
#100=CYLINDRICAL_SURFACE('',#99,5.050000000000001);
#101=CARTESIAN_POINT('',(36.799999999999983,5.050000000000003,0.0));
#102=VERTEX_POINT('',#101);
#103=CARTESIAN_POINT('',(36.799999999999983,0.0,0.0));
#104=DIRECTION('',(1.0,0.0,0.0));
#105=DIRECTION('',(0.0,1.0,0.0));
#106=AXIS2_PLACEMENT_3D('',#103,#104,#105);
#107=CIRCLE('',#106,5.050000000000003);
#108=EDGE_CURVE('',#102,#102,#107,.T.);
#109=ORIENTED_EDGE('',*,*,#108,.F.);
#110=EDGE_LOOP('',(#109));
#111=FACE_OUTER_BOUND('',#110,.T.);
#112=ORIENTED_EDGE('',*,*,#91,.F.);
#113=EDGE_LOOP('',(#112));
#114=FACE_BOUND('',#113,.T.);
#115=ADVANCED_FACE('',(#111,#114),#100,.T.);
#116=CARTESIAN_POINT('',(0.799999999999999,0.0,0.0));
#117=DIRECTION('',(1.0,0.0,0.0));
#118=DIRECTION('',(0.0,0.0,-1.0));
#119=AXIS2_PLACEMENT_3D('',#116,#117,#118);
#120=TOROIDAL_SURFACE('',#119,4.150000000000001,0.8);
#121=CARTESIAN_POINT('',(-1.110223E-015,4.150000000000001,0.0));
#122=VERTEX_POINT('',#121);
#123=CARTESIAN_POINT('',(-1.110223E-015,0.0,0.0));
#124=DIRECTION('',(1.0,0.0,0.0));
#125=DIRECTION('',(0.0,-1.0,0.0));
#126=AXIS2_PLACEMENT_3D('',#123,#124,#125);
#127=CIRCLE('',#126,4.150000000000001);
#128=EDGE_CURVE('',#122,#122,#127,.T.);
#129=ORIENTED_EDGE('',*,*,#128,.T.);
#130=EDGE_LOOP('',(#129));
#131=FACE_OUTER_BOUND('',#130,.T.);
#132=CARTESIAN_POINT('',(0.799999999999999,4.950000000000001,-1.212400E-015));
#133=VERTEX_POINT('',#132);
#134=CARTESIAN_POINT('',(0.799999999999999,0.0,0.0));
#135=DIRECTION('',(-1.0,0.0,0.0));
#136=DIRECTION('',(0.0,-1.0,0.0));
#137=AXIS2_PLACEMENT_3D('',#134,#135,#136);
#138=CIRCLE('',#137,4.950000000000001);
#139=EDGE_CURVE('',#133,#133,#138,.T.);
#140=ORIENTED_EDGE('',*,*,#139,.T.);
#141=EDGE_LOOP('',(#140));
#142=FACE_BOUND('',#141,.T.);
#143=ADVANCED_FACE('',(#131,#142),#120,.T.);
#144=CARTESIAN_POINT('',(2.524999999999999,0.0,0.0));
#145=DIRECTION('',(1.0,0.0,0.0));
#146=DIRECTION('',(0.0,1.0,0.0));
#147=AXIS2_PLACEMENT_3D('',#144,#145,#146);
#148=CYLINDRICAL_SURFACE('',#147,4.950000000000001);
#149=CARTESIAN_POINT('',(5.049999999999999,4.950000000000002,0.0));
#150=VERTEX_POINT('',#149);
#151=CARTESIAN_POINT('',(5.049999999999999,0.0,0.0));
#152=DIRECTION('',(1.0,0.0,0.0));
#153=DIRECTION('',(0.0,1.0,0.0));
#154=AXIS2_PLACEMENT_3D('',#151,#152,#153);
#155=CIRCLE('',#154,4.950000000000002);
#156=EDGE_CURVE('',#150,#150,#155,.T.);
#157=ORIENTED_EDGE('',*,*,#156,.F.);
#158=EDGE_LOOP('',(#157));
#159=FACE_OUTER_BOUND('',#158,.T.);
#160=ORIENTED_EDGE('',*,*,#139,.F.);
#161=EDGE_LOOP('',(#160));
#162=FACE_BOUND('',#161,.T.);
#163=ADVANCED_FACE('',(#159,#162),#148,.T.);
#164=CARTESIAN_POINT('',(-1.110223E-015,4.4375,0.0));
#165=DIRECTION('',(-1.0,0.0,0.0));
#166=DIRECTION('',(0.0,0.0,1.0));
#167=AXIS2_PLACEMENT_3D('',#164,#165,#166);
#168=PLANE('',#167);
#169=ORIENTED_EDGE('',*,*,#128,.F.);
#170=EDGE_LOOP('',(#169));
#171=FACE_OUTER_BOUND('',#170,.T.);
#172=CARTESIAN_POINT('',(-1.110223E-015,3.925,0.0));
#173=VERTEX_POINT('',#172);
#174=CARTESIAN_POINT('',(-1.110223E-015,0.0,0.0));
#175=DIRECTION('',(1.0,0.0,0.0));
#176=DIRECTION('',(0.0,1.0,0.0));
#177=AXIS2_PLACEMENT_3D('',#174,#175,#176);
#178=CIRCLE('',#177,3.925);
#179=EDGE_CURVE('',#173,#173,#178,.T.);
#180=ORIENTED_EDGE('',*,*,#179,.T.);
#181=EDGE_LOOP('',(#180));
#182=FACE_BOUND('',#181,.T.);
#183=ADVANCED_FACE('',(#171,#182),#168,.T.);
#184=CARTESIAN_POINT('',(5.574999999999997,0.0,0.0));
#185=DIRECTION('',(1.0,0.0,0.0));
#186=DIRECTION('',(0.0,1.0,0.0));
#187=AXIS2_PLACEMENT_3D('',#184,#185,#186);
#188=CONICAL_SURFACE('',#187,5.475000000000001,45.000000000000071);
#189=CARTESIAN_POINT('',(6.099999999999995,6.000000000000001,0.0));
#190=VERTEX_POINT('',#189);
#191=CARTESIAN_POINT('',(6.099999999999995,0.0,0.0));
#192=DIRECTION('',(1.0,0.0,0.0));
#193=DIRECTION('',(0.0,1.0,0.0));
#194=AXIS2_PLACEMENT_3D('',#191,#192,#193);
#195=CIRCLE('',#194,6.000000000000001);
#196=EDGE_CURVE('',#190,#190,#195,.T.);
#197=ORIENTED_EDGE('',*,*,#196,.F.);
#198=EDGE_LOOP('',(#197));
#199=FACE_OUTER_BOUND('',#198,.T.);
#200=ORIENTED_EDGE('',*,*,#156,.T.);
#201=EDGE_LOOP('',(#200));
#202=FACE_BOUND('',#201,.T.);
#203=ADVANCED_FACE('',(#199,#202),#188,.T.);
#204=CARTESIAN_POINT('',(6.549999999999998,0.0,0.0));
#205=DIRECTION('',(1.0,0.0,0.0));
#206=DIRECTION('',(0.0,1.0,0.0));
#207=AXIS2_PLACEMENT_3D('',#204,#205,#206);
#208=CYLINDRICAL_SURFACE('',#207,6.000000000000001);
#209=CARTESIAN_POINT('',(7.0,6.000000000000001,0.0));
#210=VERTEX_POINT('',#209);
#211=CARTESIAN_POINT('',(7.0,0.0,0.0));
#212=DIRECTION('',(1.0,0.0,0.0));
#213=DIRECTION('',(0.0,1.0,0.0));
#214=AXIS2_PLACEMENT_3D('',#211,#212,#213);
#215=CIRCLE('',#214,6.000000000000001);
#216=EDGE_CURVE('',#210,#210,#215,.T.);
#217=ORIENTED_EDGE('',*,*,#216,.F.);
#218=EDGE_LOOP('',(#217));
#219=FACE_OUTER_BOUND('',#218,.T.);
#220=ORIENTED_EDGE('',*,*,#196,.T.);
#221=EDGE_LOOP('',(#220));
#222=FACE_BOUND('',#221,.T.);
#223=ADVANCED_FACE('',(#219,#222),#208,.T.);
#224=CARTESIAN_POINT('',(9.41395334055397,0.0,0.0));
#225=DIRECTION('',(1.0,0.0,0.0));
#226=DIRECTION('',(0.0,0.0,-1.0));
#227=AXIS2_PLACEMENT_3D('',#224,#225,#226);
#228=TOROIDAL_SURFACE('',#227,7.317318970344058,2.75);
#229=CARTESIAN_POINT('',(8.149999999999999,4.875,0.0));
#230=VERTEX_POINT('',#229);
#231=CARTESIAN_POINT('',(8.149999999999999,0.0,0.0));
#232=DIRECTION('',(1.0,0.0,0.0));
#233=DIRECTION('',(0.0,1.0,0.0));
#234=AXIS2_PLACEMENT_3D('',#231,#232,#233);
#235=CIRCLE('',#234,4.875);
#236=EDGE_CURVE('',#230,#230,#235,.T.);
#237=ORIENTED_EDGE('',*,*,#236,.F.);
#238=EDGE_LOOP('',(#237));
#239=FACE_OUTER_BOUND('',#238,.T.);
#240=ORIENTED_EDGE('',*,*,#216,.T.);
#241=EDGE_LOOP('',(#240));
#242=FACE_BOUND('',#241,.T.);
#243=ADVANCED_FACE('',(#239,#242),#228,.F.);
#244=CARTESIAN_POINT('',(9.299999999999999,0.0,0.0));
#245=DIRECTION('',(1.0,0.0,0.0));
#246=DIRECTION('',(0.0,1.0,0.0));
#247=AXIS2_PLACEMENT_3D('',#244,#245,#246);
#248=CYLINDRICAL_SURFACE('',#247,4.875);
#249=CARTESIAN_POINT('',(10.449999999999999,4.875,0.0));
#250=VERTEX_POINT('',#249);
#251=CARTESIAN_POINT('',(10.449999999999999,0.0,0.0));
#252=DIRECTION('',(1.0,0.0,0.0));
#253=DIRECTION('',(0.0,1.0,0.0));
#254=AXIS2_PLACEMENT_3D('',#251,#252,#253);
#255=CIRCLE('',#254,4.875);
#256=EDGE_CURVE('',#250,#250,#255,.T.);
#257=ORIENTED_EDGE('',*,*,#256,.F.);
#258=EDGE_LOOP('',(#257));
#259=FACE_OUTER_BOUND('',#258,.T.);
#260=ORIENTED_EDGE('',*,*,#236,.T.);
#261=EDGE_LOOP('',(#260));
#262=FACE_BOUND('',#261,.T.);
#263=ADVANCED_FACE('',(#259,#262),#248,.T.);
#264=CARTESIAN_POINT('',(9.115907397699241,0.0,0.0));
#265=DIRECTION('',(1.0,0.0,0.0));
#266=DIRECTION('',(0.0,0.0,-1.0));
#267=AXIS2_PLACEMENT_3D('',#264,#265,#266);
#268=TOROIDAL_SURFACE('',#267,7.279723877805182,2.75);
#269=CARTESIAN_POINT('',(11.550000000000011,6.000000000000005,0.0));
#270=VERTEX_POINT('',#269);
#271=CARTESIAN_POINT('',(11.550000000000011,0.0,0.0));
#272=DIRECTION('',(1.0,0.0,0.0));
#273=DIRECTION('',(0.0,1.0,0.0));
#274=AXIS2_PLACEMENT_3D('',#271,#272,#273);
#275=CIRCLE('',#274,6.000000000000005);
#276=EDGE_CURVE('',#270,#270,#275,.T.);
#277=ORIENTED_EDGE('',*,*,#276,.F.);
#278=EDGE_LOOP('',(#277));
#279=FACE_OUTER_BOUND('',#278,.T.);
#280=ORIENTED_EDGE('',*,*,#256,.T.);
#281=EDGE_LOOP('',(#280));
#282=FACE_BOUND('',#281,.T.);
#283=ADVANCED_FACE('',(#279,#282),#268,.F.);
#284=CARTESIAN_POINT('',(17.425000000000001,0.0,0.0));
#285=DIRECTION('',(1.0,0.0,0.0));
#286=DIRECTION('',(0.0,1.0,0.0));
#287=AXIS2_PLACEMENT_3D('',#284,#285,#286);
#288=CYLINDRICAL_SURFACE('',#287,6.000000000000004);
#289=ORIENTED_EDGE('',*,*,#80,.F.);
#290=EDGE_LOOP('',(#289));
#291=FACE_OUTER_BOUND('',#290,.T.);
#292=ORIENTED_EDGE('',*,*,#276,.T.);
#293=EDGE_LOOP('',(#292));
#294=FACE_BOUND('',#293,.T.);
#295=ADVANCED_FACE('',(#291,#294),#288,.T.);
#296=CARTESIAN_POINT('',(36.79999999999999,5.250000000000002,0.0));
#297=DIRECTION('',(-1.0,0.0,0.0));
#298=DIRECTION('',(0.0,0.0,1.0));
#299=AXIS2_PLACEMENT_3D('',#296,#297,#298);
#300=PLANE('',#299);
#301=CARTESIAN_POINT('',(36.79999999999999,5.45,0.0));
#302=VERTEX_POINT('',#301);
#303=CARTESIAN_POINT('',(36.79999999999999,0.0,0.0));
#304=DIRECTION('',(1.0,0.0,0.0));
#305=DIRECTION('',(0.0,1.0,0.0));
#306=AXIS2_PLACEMENT_3D('',#303,#304,#305);
#307=CIRCLE('',#306,5.45);
#308=EDGE_CURVE('',#302,#302,#307,.T.);
#309=ORIENTED_EDGE('',*,*,#308,.F.);
#310=EDGE_LOOP('',(#309));
#311=FACE_OUTER_BOUND('',#310,.T.);
#312=ORIENTED_EDGE('',*,*,#108,.T.);
#313=EDGE_LOOP('',(#312));
#314=FACE_BOUND('',#313,.T.);
#315=ADVANCED_FACE('',(#311,#314),#300,.T.);
#316=CARTESIAN_POINT('',(37.04999999999999,0.0,0.0));
#317=DIRECTION('',(1.0,0.0,0.0));
#318=DIRECTION('',(0.0,0.0,-1.0));
#319=AXIS2_PLACEMENT_3D('',#316,#317,#318);
#320=TOROIDAL_SURFACE('',#319,5.45,0.250000000000001);
#321=CARTESIAN_POINT('',(37.093423188015578,5.696199973075876,0.0));
#322=VERTEX_POINT('',#321);
#323=CARTESIAN_POINT('',(37.093423188015578,0.0,0.0));
#324=DIRECTION('',(1.0,0.0,0.0));
#325=DIRECTION('',(0.0,1.0,0.0));
#326=AXIS2_PLACEMENT_3D('',#323,#324,#325);
#327=CIRCLE('',#326,5.696199973075876);
#328=EDGE_CURVE('',#322,#322,#327,.T.);
#329=ORIENTED_EDGE('',*,*,#328,.F.);
#330=EDGE_LOOP('',(#329));
#331=FACE_OUTER_BOUND('',#330,.T.);
#332=ORIENTED_EDGE('',*,*,#308,.T.);
#333=EDGE_LOOP('',(#332));
#334=FACE_BOUND('',#333,.T.);
#335=ADVANCED_FACE('',(#331,#334),#320,.T.);
#336=CARTESIAN_POINT('',(38.770657681198443,0.0,0.0));
#337=DIRECTION('',(-1.0,0.0,0.0));
#338=DIRECTION('',(0.0,1.0,0.0));
#339=AXIS2_PLACEMENT_3D('',#336,#337,#338);
#340=CONICAL_SURFACE('',#339,5.400380002692412,10.002593333488083);
#341=CARTESIAN_POINT('',(40.447892174381302,5.104560032308948,0.0));
#342=VERTEX_POINT('',#341);
#343=CARTESIAN_POINT('',(40.447892174381302,0.0,0.0));
#344=DIRECTION('',(1.0,0.0,0.0));
#345=DIRECTION('',(0.0,1.0,0.0));
#346=AXIS2_PLACEMENT_3D('',#343,#344,#345);
#347=CIRCLE('',#346,5.104560032308948);
#348=EDGE_CURVE('',#342,#342,#347,.T.);
#349=ORIENTED_EDGE('',*,*,#348,.F.);
#350=EDGE_LOOP('',(#349));
#351=FACE_OUTER_BOUND('',#350,.T.);
#352=ORIENTED_EDGE('',*,*,#328,.T.);
#353=EDGE_LOOP('',(#352));
#354=FACE_BOUND('',#353,.T.);
#355=ADVANCED_FACE('',(#351,#354),#340,.T.);
#356=CARTESIAN_POINT('',(40.500000000000014,0.0,0.0));
#357=DIRECTION('',(1.0,0.0,0.0));
#358=DIRECTION('',(0.0,0.0,-1.0));
#359=AXIS2_PLACEMENT_3D('',#356,#357,#358);
#360=TOROIDAL_SURFACE('',#359,5.4,0.300000000000011);
#361=CARTESIAN_POINT('',(40.800000000000011,5.4,0.0));
#362=VERTEX_POINT('',#361);
#363=CARTESIAN_POINT('',(40.800000000000011,0.0,0.0));
#364=DIRECTION('',(1.0,0.0,0.0));
#365=DIRECTION('',(0.0,1.0,0.0));
#366=AXIS2_PLACEMENT_3D('',#363,#364,#365);
#367=CIRCLE('',#366,5.4);
#368=EDGE_CURVE('',#362,#362,#367,.T.);
#369=ORIENTED_EDGE('',*,*,#368,.F.);
#370=EDGE_LOOP('',(#369));
#371=FACE_OUTER_BOUND('',#370,.T.);
#372=ORIENTED_EDGE('',*,*,#348,.T.);
#373=EDGE_LOOP('',(#372));
#374=FACE_BOUND('',#373,.T.);
#375=ADVANCED_FACE('',(#371,#374),#360,.F.);
#376=CARTESIAN_POINT('',(40.800000000000011,5.425,0.0));
#377=DIRECTION('',(-1.0,0.0,0.0));
#378=DIRECTION('',(0.0,0.0,1.0));
#379=AXIS2_PLACEMENT_3D('',#376,#377,#378);
#380=PLANE('',#379);
#381=CARTESIAN_POINT('',(40.800000000000011,5.45,0.0));
#382=VERTEX_POINT('',#381);
#383=CARTESIAN_POINT('',(40.800000000000011,0.0,0.0));
#384=DIRECTION('',(1.0,0.0,0.0));
#385=DIRECTION('',(0.0,1.0,0.0));
#386=AXIS2_PLACEMENT_3D('',#383,#384,#385);
#387=CIRCLE('',#386,5.45);
#388=EDGE_CURVE('',#382,#382,#387,.T.);
#389=ORIENTED_EDGE('',*,*,#388,.F.);
#390=EDGE_LOOP('',(#389));
#391=FACE_OUTER_BOUND('',#390,.T.);
#392=ORIENTED_EDGE('',*,*,#368,.T.);
#393=EDGE_LOOP('',(#392));
#394=FACE_BOUND('',#393,.T.);
#395=ADVANCED_FACE('',(#391,#394),#380,.T.);
#396=CARTESIAN_POINT('',(41.050000000000011,0.0,0.0));
#397=DIRECTION('',(1.0,0.0,0.0));
#398=DIRECTION('',(0.0,0.0,-1.0));
#399=AXIS2_PLACEMENT_3D('',#396,#397,#398);
#400=TOROIDAL_SURFACE('',#399,5.45,0.25);
#401=CARTESIAN_POINT('',(41.089703860057973,5.696827072049437,0.0));
#402=VERTEX_POINT('',#401);
#403=CARTESIAN_POINT('',(41.089703860057973,0.0,0.0));
#404=DIRECTION('',(1.0,0.0,0.0));
#405=DIRECTION('',(0.0,1.0,0.0));
#406=AXIS2_PLACEMENT_3D('',#403,#404,#405);
#407=CIRCLE('',#406,5.696827072049437);
#408=EDGE_CURVE('',#402,#402,#407,.T.);
#409=ORIENTED_EDGE('',*,*,#408,.F.);
#410=EDGE_LOOP('',(#409));
#411=FACE_OUTER_BOUND('',#410,.T.);
#412=ORIENTED_EDGE('',*,*,#388,.T.);
#413=EDGE_LOOP('',(#412));
#414=FACE_BOUND('',#413,.T.);
#415=ADVANCED_FACE('',(#411,#414),#400,.T.);
#416=CARTESIAN_POINT('',(42.944851930028989,0.0,0.0));
#417=DIRECTION('',(-1.0,0.0,0.0));
#418=DIRECTION('',(0.0,1.0,0.0));
#419=AXIS2_PLACEMENT_3D('',#416,#417,#418);
#420=CONICAL_SURFACE('',#419,5.398413536024719,9.138146831770124);
#421=CARTESIAN_POINT('',(44.799999999999997,5.1,0.0));
#422=VERTEX_POINT('',#421);
#423=CARTESIAN_POINT('',(44.799999999999997,0.0,0.0));
#424=DIRECTION('',(1.0,0.0,0.0));
#425=DIRECTION('',(0.0,1.0,0.0));
#426=AXIS2_PLACEMENT_3D('',#423,#424,#425);
#427=CIRCLE('',#426,5.1);
#428=EDGE_CURVE('',#422,#422,#427,.T.);
#429=ORIENTED_EDGE('',*,*,#428,.F.);
#430=EDGE_LOOP('',(#429));
#431=FACE_OUTER_BOUND('',#430,.T.);
#432=ORIENTED_EDGE('',*,*,#408,.T.);
#433=EDGE_LOOP('',(#432));
#434=FACE_BOUND('',#433,.T.);
#435=ADVANCED_FACE('',(#431,#434),#420,.T.);
#436=CARTESIAN_POINT('',(46.424807680927188,0.0,0.0));
#437=DIRECTION('',(1.0,0.0,0.0));
#438=DIRECTION('',(0.0,0.0,-1.0));
#439=AXIS2_PLACEMENT_3D('',#436,#437,#438);
#440=TOROIDAL_SURFACE('',#439,3.199999999999999,2.5);
#441=CARTESIAN_POINT('',(48.29999999999999,4.853376474518243,0.0));
#442=VERTEX_POINT('',#441);
#443=CARTESIAN_POINT('',(48.29999999999999,0.0,0.0));
#444=DIRECTION('',(1.0,0.0,0.0));
#445=DIRECTION('',(0.0,1.0,0.0));
#446=AXIS2_PLACEMENT_3D('',#443,#444,#445);
#447=CIRCLE('',#446,4.853376474518243);
#448=EDGE_CURVE('',#442,#442,#447,.T.);
#449=ORIENTED_EDGE('',*,*,#448,.F.);
#450=EDGE_LOOP('',(#449));
#451=FACE_OUTER_BOUND('',#450,.T.);
#452=ORIENTED_EDGE('',*,*,#428,.T.);
#453=EDGE_LOOP('',(#452));
#454=FACE_BOUND('',#453,.T.);
#455=ADVANCED_FACE('',(#451,#454),#440,.T.);
#456=CARTESIAN_POINT('',(48.299999999999969,4.389188237259122,0.0));
#457=DIRECTION('',(1.0,0.0,0.0));
#458=DIRECTION('',(0.0,0.0,-1.0));
#459=AXIS2_PLACEMENT_3D('',#456,#457,#458);
#460=PLANE('',#459);
#461=ORIENTED_EDGE('',*,*,#448,.T.);
#462=EDGE_LOOP('',(#461));
#463=FACE_OUTER_BOUND('',#462,.T.);
#464=CARTESIAN_POINT('',(48.299999999999947,3.925000000000001,0.0));
#465=VERTEX_POINT('',#464);
#466=CARTESIAN_POINT('',(48.299999999999947,0.0,0.0));
#467=DIRECTION('',(1.0,0.0,0.0));
#468=DIRECTION('',(0.0,1.0,0.0));
#469=AXIS2_PLACEMENT_3D('',#466,#467,#468);
#470=CIRCLE('',#469,3.925000000000001);
#471=EDGE_CURVE('',#465,#465,#470,.T.);
#472=ORIENTED_EDGE('',*,*,#471,.F.);
#473=EDGE_LOOP('',(#472));
#474=FACE_BOUND('',#473,.T.);
#475=ADVANCED_FACE('',(#463,#474),#460,.T.);
#476=CARTESIAN_POINT('',(24.149999999999974,0.0,0.0));
#477=DIRECTION('',(1.0,0.0,0.0));
#478=DIRECTION('',(0.0,1.0,0.0));
#479=AXIS2_PLACEMENT_3D('',#476,#477,#478);
#480=CYLINDRICAL_SURFACE('',#479,3.925000000000001);
#481=ORIENTED_EDGE('',*,*,#179,.F.);
#482=EDGE_LOOP('',(#481));
#483=FACE_OUTER_BOUND('',#482,.T.);
#484=ORIENTED_EDGE('',*,*,#471,.T.);
#485=EDGE_LOOP('',(#484));
#486=FACE_BOUND('',#485,.T.);
#487=ADVANCED_FACE('',(#483,#486),#480,.F.);
#488=CLOSED_SHELL('',(#95,#115,#143,#163,#183,#203,#223,#243,#263,#283,#295,#315,#335,#355,#375,#395,#415,#435,#455,#475,#487));
#489=MANIFOLD_SOLID_BREP('Volumenk\S\vrper1',#488);
#490=COLOUR_RGB('Metal-Steel',0.639216005802155,0.639216005802155,0.662745475769043);
#491=FILL_AREA_STYLE_COLOUR('Metal-Steel',#490);
#492=FILL_AREA_STYLE('Metal-Steel',(#491));
#493=SURFACE_STYLE_FILL_AREA(#492);
#494=SURFACE_SIDE_STYLE('Metal-Steel',(#493));
#495=SURFACE_STYLE_USAGE(.BOTH.,#494);
#496=PRESENTATION_STYLE_ASSIGNMENT((#495));
#497=STYLED_ITEM('',(#496),#489);
#498=MECHANICAL_DESIGN_GEOMETRIC_PRESENTATION_REPRESENTATION('',(#497),#36);
#499=ADVANCED_BREP_SHAPE_REPRESENTATION('ABSR',(#489),#36);
#500=SHAPE_REPRESENTATION_RELATIONSHIP('SRR','None',#499,#41);
ENDSEC;
END-ISO-10303-21;
