ISO-10303-21;
HEADER;
/****************************************************************
 * Generated by software with PDElib inside                    *
 * PDElib Version v51a, created Wed 11/30/2011                  *
 * ITI Transcendata (http://www.transcendata.com/)              *
 ****************************************************************/
FILE_DESCRIPTION((''),'2;1');
FILE_NAME('J:\\3D Zeichnungen_step\\Serie 21\\21sftf10rxx.stp','2014-04-14T14:14:51',('IA176480'),(''),'Autodesk Inventor 2013','Autodesk Inventor 2013','');
FILE_SCHEMA(('AUTOMOTIVE_DESIGN { 1 0 10303 214 1 1 1 1 }'));
ENDSEC;
DATA;
#5=APPLICATION_CONTEXT('automotive design');
#6=APPLICATION_PROTOCOL_DEFINITION('International Standard','automotive_design',2001,#5);
#7=PRODUCT_CONTEXT('',#5,'mechanical');
#8=PRODUCT('D110089','D110089',$,(#7));
#9=PRODUCT_RELATED_PRODUCT_CATEGORY('part',$,(#8));
#10=PRODUCT_DEFINITION_FORMATION('',$,#8);
#11=PRODUCT_DEFINITION_CONTEXT('part definition',#5,'design');
#12=PRODUCT_DEFINITION('',$,#10,#11);
#18=(NAMED_UNIT(*)PLANE_ANGLE_UNIT()SI_UNIT($,.RADIAN.));
#19=DIMENSIONAL_EXPONENTS(0.0,0.0,0.0,0.0,0.0,0.0,0.0);
#20=PLANE_ANGLE_MEASURE_WITH_UNIT(PLANE_ANGLE_MEASURE(0.0174532925),#18);
#24=(CONVERSION_BASED_UNIT('DEGREE',#20)NAMED_UNIT(#19)PLANE_ANGLE_UNIT());
#28=(NAMED_UNIT(*)SI_UNIT($,.STERADIAN.)SOLID_ANGLE_UNIT());
#32=(LENGTH_UNIT()NAMED_UNIT(*)SI_UNIT(.MILLI.,.METRE.));
#34=UNCERTAINTY_MEASURE_WITH_UNIT(LENGTH_MEASURE(0.01),#32,'DISTANCE_ACCURACY_VALUE','');
#36=(GEOMETRIC_REPRESENTATION_CONTEXT(3)GLOBAL_UNCERTAINTY_ASSIGNED_CONTEXT((#34))GLOBAL_UNIT_ASSIGNED_CONTEXT((#24,#28,#32))REPRESENTATION_CONTEXT('None','None'));
#37=AXIS2_PLACEMENT_3D('',#38,#39,#40);
#38=CARTESIAN_POINT('',(0.0,0.0,0.0));
#39=DIRECTION('',(0.0,0.0,1.0));
#40=DIRECTION('',(1.0,0.0,0.0));
#41=SHAPE_REPRESENTATION('',(#37),#36);
#42=PRODUCT_DEFINITION_SHAPE('','',#12);
#43=SHAPE_DEFINITION_REPRESENTATION(#42,#41);
#49=(NAMED_UNIT(*)PLANE_ANGLE_UNIT()SI_UNIT($,.RADIAN.));
#50=DIMENSIONAL_EXPONENTS(0.0,0.0,0.0,0.0,0.0,0.0,0.0);
#51=PLANE_ANGLE_MEASURE_WITH_UNIT(PLANE_ANGLE_MEASURE(0.0174532925),#49);
#55=(CONVERSION_BASED_UNIT('DEGREE',#51)NAMED_UNIT(#50)PLANE_ANGLE_UNIT());
#59=(NAMED_UNIT(*)SI_UNIT($,.STERADIAN.)SOLID_ANGLE_UNIT());
#63=(LENGTH_UNIT()NAMED_UNIT(*)SI_UNIT(.MILLI.,.METRE.));
#65=UNCERTAINTY_MEASURE_WITH_UNIT(LENGTH_MEASURE(0.000001),#63,'DISTANCE_ACCURACY_VALUE','');
#67=(GEOMETRIC_REPRESENTATION_CONTEXT(3)GLOBAL_UNCERTAINTY_ASSIGNED_CONTEXT((#65))GLOBAL_UNIT_ASSIGNED_CONTEXT((#55,#59,#63))REPRESENTATION_CONTEXT('','3D'));
#68=CARTESIAN_POINT('',(32.700000000000003,0.0,0.0));
#69=DIRECTION('',(1.0,0.0,0.0));
#70=DIRECTION('',(0.0,0.0,-1.0));
#71=AXIS2_PLACEMENT_3D('',#68,#69,#70);
#72=TOROIDAL_SURFACE('',#71,4.204998149518621,0.3);
#73=CARTESIAN_POINT('',(32.77764571353076,4.494775897405343,-6.162976E-032));
#74=VERTEX_POINT('',#73);
#75=CARTESIAN_POINT('',(32.77764571353076,0.0,-5.504513E-016));
#76=DIRECTION('',(1.0,0.0,0.0));
#77=DIRECTION('',(0.0,-1.0,0.0));
#78=AXIS2_PLACEMENT_3D('',#75,#76,#77);
#79=CIRCLE('',#78,4.494775897405343);
#80=EDGE_CURVE('',#74,#74,#79,.T.);
#81=ORIENTED_EDGE('',*,*,#80,.T.);
#82=EDGE_LOOP('',(#81));
#83=FACE_OUTER_BOUND('',#82,.T.);
#84=CARTESIAN_POINT('',(33.0,4.204998149518621,-1.029928E-015));
#85=VERTEX_POINT('',#84);
#86=CARTESIAN_POINT('',(33.0,0.0,0.0));
#87=DIRECTION('',(-1.0,0.0,0.0));
#88=DIRECTION('',(0.0,-1.0,0.0));
#89=AXIS2_PLACEMENT_3D('',#86,#87,#88);
#90=CIRCLE('',#89,4.204998149518621);
#91=EDGE_CURVE('',#85,#85,#90,.T.);
#92=ORIENTED_EDGE('',*,*,#91,.T.);
#93=EDGE_LOOP('',(#92));
#94=FACE_BOUND('',#93,.T.);
#95=ADVANCED_FACE('',(#83,#94),#72,.T.);
#96=CARTESIAN_POINT('',(30.938822856765377,0.0,0.0));
#97=DIRECTION('',(-1.0,0.0,0.0));
#98=DIRECTION('',(0.0,1.0,0.0));
#99=AXIS2_PLACEMENT_3D('',#96,#97,#98);
#100=CONICAL_SURFACE('',#99,4.987486996899515,14.99999999999995);
#101=CARTESIAN_POINT('',(28.877645713530754,5.53977774788672,0.0));
#102=VERTEX_POINT('',#101);
#103=CARTESIAN_POINT('',(28.877645713530754,0.0,0.0));
#104=DIRECTION('',(1.0,0.0,0.0));
#105=DIRECTION('',(0.0,1.0,0.0));
#106=AXIS2_PLACEMENT_3D('',#103,#104,#105);
#107=CIRCLE('',#106,5.53977774788672);
#108=EDGE_CURVE('',#102,#102,#107,.T.);
#109=ORIENTED_EDGE('',*,*,#108,.T.);
#110=EDGE_LOOP('',(#109));
#111=FACE_OUTER_BOUND('',#110,.T.);
#112=ORIENTED_EDGE('',*,*,#80,.F.);
#113=EDGE_LOOP('',(#112));
#114=FACE_BOUND('',#113,.T.);
#115=ADVANCED_FACE('',(#111,#114),#100,.T.);
#116=CARTESIAN_POINT('',(33.0,4.217598122956157,0.0));
#117=DIRECTION('',(1.0,0.0,0.0));
#118=DIRECTION('',(0.0,0.0,-1.0));
#119=AXIS2_PLACEMENT_3D('',#116,#117,#118);
#120=PLANE('',#119);
#121=ORIENTED_EDGE('',*,*,#91,.F.);
#122=EDGE_LOOP('',(#121));
#123=FACE_OUTER_BOUND('',#122,.T.);
#124=CARTESIAN_POINT('',(33.0,4.000000000000004,0.0));
#125=VERTEX_POINT('',#124);
#126=CARTESIAN_POINT('',(33.0,0.0,0.0));
#127=DIRECTION('',(1.0,0.0,0.0));
#128=DIRECTION('',(0.0,1.0,0.0));
#129=AXIS2_PLACEMENT_3D('',#126,#127,#128);
#130=CIRCLE('',#129,4.000000000000004);
#131=EDGE_CURVE('',#125,#125,#130,.T.);
#132=ORIENTED_EDGE('',*,*,#131,.F.);
#133=EDGE_LOOP('',(#132));
#134=FACE_BOUND('',#133,.T.);
#135=ADVANCED_FACE('',(#123,#134),#120,.T.);
#136=CARTESIAN_POINT('',(16.5,0.0,0.0));
#137=DIRECTION('',(1.0,0.0,0.0));
#138=DIRECTION('',(0.0,0.0,-1.0));
#139=AXIS2_PLACEMENT_3D('',#136,#137,#138);
#140=TOROIDAL_SURFACE('',#139,5.525000000000001,0.5);
#141=CARTESIAN_POINT('',(16.0,5.525000000000001,0.0));
#142=VERTEX_POINT('',#141);
#143=CARTESIAN_POINT('',(16.0,0.0,0.0));
#144=DIRECTION('',(1.0,0.0,0.0));
#145=DIRECTION('',(0.0,-1.0,0.0));
#146=AXIS2_PLACEMENT_3D('',#143,#144,#145);
#147=CIRCLE('',#146,5.525000000000001);
#148=EDGE_CURVE('',#142,#142,#147,.T.);
#149=ORIENTED_EDGE('',*,*,#148,.T.);
#150=EDGE_LOOP('',(#149));
#151=FACE_OUTER_BOUND('',#150,.T.);
#152=CARTESIAN_POINT('',(16.5,5.025,-1.230770E-015));
#153=VERTEX_POINT('',#152);
#154=CARTESIAN_POINT('',(16.5,0.0,0.0));
#155=DIRECTION('',(-1.0,0.0,0.0));
#156=DIRECTION('',(0.0,-1.0,0.0));
#157=AXIS2_PLACEMENT_3D('',#154,#155,#156);
#158=CIRCLE('',#157,5.025);
#159=EDGE_CURVE('',#153,#153,#158,.T.);
#160=ORIENTED_EDGE('',*,*,#159,.T.);
#161=EDGE_LOOP('',(#160));
#162=FACE_BOUND('',#161,.T.);
#163=ADVANCED_FACE('',(#151,#162),#140,.F.);
#164=CARTESIAN_POINT('',(16.0,5.5125,0.0));
#165=DIRECTION('',(1.0,0.0,0.0));
#166=DIRECTION('',(0.0,0.0,-1.0));
#167=AXIS2_PLACEMENT_3D('',#164,#165,#166);
#168=PLANE('',#167);
#169=CARTESIAN_POINT('',(15.999999999999998,6.000000000000001,0.0));
#170=VERTEX_POINT('',#169);
#171=CARTESIAN_POINT('',(15.999999999999998,0.0,0.0));
#172=DIRECTION('',(1.0,0.0,0.0));
#173=DIRECTION('',(0.0,1.0,0.0));
#174=AXIS2_PLACEMENT_3D('',#171,#172,#173);
#175=CIRCLE('',#174,6.000000000000001);
#176=EDGE_CURVE('',#170,#170,#175,.T.);
#177=ORIENTED_EDGE('',*,*,#176,.T.);
#178=EDGE_LOOP('',(#177));
#179=FACE_OUTER_BOUND('',#178,.T.);
#180=ORIENTED_EDGE('',*,*,#148,.F.);
#181=EDGE_LOOP('',(#180));
#182=FACE_BOUND('',#181,.T.);
#183=ADVANCED_FACE('',(#179,#182),#168,.T.);
#184=CARTESIAN_POINT('',(20.0,0.0,0.0));
#185=DIRECTION('',(1.0,0.0,0.0));
#186=DIRECTION('',(0.0,1.0,0.0));
#187=AXIS2_PLACEMENT_3D('',#184,#185,#186);
#188=CYLINDRICAL_SURFACE('',#187,5.025);
#189=CARTESIAN_POINT('',(24.000000000000004,5.025000000000002,0.0));
#190=VERTEX_POINT('',#189);
#191=CARTESIAN_POINT('',(24.000000000000004,0.0,0.0));
#192=DIRECTION('',(1.0,0.0,0.0));
#193=DIRECTION('',(0.0,1.0,0.0));
#194=AXIS2_PLACEMENT_3D('',#191,#192,#193);
#195=CIRCLE('',#194,5.025000000000002);
#196=EDGE_CURVE('',#190,#190,#195,.T.);
#197=ORIENTED_EDGE('',*,*,#196,.F.);
#198=EDGE_LOOP('',(#197));
#199=FACE_OUTER_BOUND('',#198,.T.);
#200=ORIENTED_EDGE('',*,*,#159,.F.);
#201=EDGE_LOOP('',(#200));
#202=FACE_BOUND('',#201,.T.);
#203=ADVANCED_FACE('',(#199,#202),#188,.T.);
#204=CARTESIAN_POINT('',(13.600000000000001,0.0,0.0));
#205=DIRECTION('',(1.0,0.0,0.0));
#206=DIRECTION('',(0.0,0.0,-1.0));
#207=AXIS2_PLACEMENT_3D('',#204,#205,#206);
#208=TOROIDAL_SURFACE('',#207,5.0,0.5);
#209=CARTESIAN_POINT('',(13.600000000000001,4.5,0.0));
#210=VERTEX_POINT('',#209);
#211=CARTESIAN_POINT('',(13.600000000000001,0.0,0.0));
#212=DIRECTION('',(1.0,0.0,0.0));
#213=DIRECTION('',(0.0,-1.0,0.0));
#214=AXIS2_PLACEMENT_3D('',#211,#212,#213);
#215=CIRCLE('',#214,4.5);
#216=EDGE_CURVE('',#210,#210,#215,.T.);
#217=ORIENTED_EDGE('',*,*,#216,.T.);
#218=EDGE_LOOP('',(#217));
#219=FACE_OUTER_BOUND('',#218,.T.);
#220=CARTESIAN_POINT('',(14.100000000000001,5.0,-1.224647E-015));
#221=VERTEX_POINT('',#220);
#222=CARTESIAN_POINT('',(14.100000000000001,0.0,0.0));
#223=DIRECTION('',(-1.0,0.0,0.0));
#224=DIRECTION('',(0.0,-1.0,0.0));
#225=AXIS2_PLACEMENT_3D('',#222,#223,#224);
#226=CIRCLE('',#225,5.0);
#227=EDGE_CURVE('',#221,#221,#226,.T.);
#228=ORIENTED_EDGE('',*,*,#227,.T.);
#229=EDGE_LOOP('',(#228));
#230=FACE_BOUND('',#229,.T.);
#231=ADVANCED_FACE('',(#219,#230),#208,.F.);
#232=CARTESIAN_POINT('',(11.225000000000001,0.0,0.0));
#233=DIRECTION('',(1.0,0.0,0.0));
#234=DIRECTION('',(0.0,1.0,0.0));
#235=AXIS2_PLACEMENT_3D('',#232,#233,#234);
#236=CYLINDRICAL_SURFACE('',#235,4.5);
#237=CARTESIAN_POINT('',(8.349999999999998,4.5,0.0));
#238=VERTEX_POINT('',#237);
#239=CARTESIAN_POINT('',(8.349999999999998,0.0,0.0));
#240=DIRECTION('',(1.0,0.0,0.0));
#241=DIRECTION('',(0.0,1.0,0.0));
#242=AXIS2_PLACEMENT_3D('',#239,#240,#241);
#243=CIRCLE('',#242,4.5);
#244=EDGE_CURVE('',#238,#238,#243,.T.);
#245=ORIENTED_EDGE('',*,*,#244,.T.);
#246=EDGE_LOOP('',(#245));
#247=FACE_OUTER_BOUND('',#246,.T.);
#248=ORIENTED_EDGE('',*,*,#216,.F.);
#249=EDGE_LOOP('',(#248));
#250=FACE_BOUND('',#249,.T.);
#251=ADVANCED_FACE('',(#247,#250),#236,.T.);
#252=CARTESIAN_POINT('',(14.100000000000001,5.250000000000002,0.0));
#253=DIRECTION('',(-1.0,0.0,0.0));
#254=DIRECTION('',(0.0,0.0,1.0));
#255=AXIS2_PLACEMENT_3D('',#252,#253,#254);
#256=PLANE('',#255);
#257=CARTESIAN_POINT('',(14.100000000000001,6.000000000000001,0.0));
#258=VERTEX_POINT('',#257);
#259=CARTESIAN_POINT('',(14.100000000000001,0.0,0.0));
#260=DIRECTION('',(1.0,0.0,0.0));
#261=DIRECTION('',(0.0,1.0,0.0));
#262=AXIS2_PLACEMENT_3D('',#259,#260,#261);
#263=CIRCLE('',#262,6.000000000000001);
#264=EDGE_CURVE('',#258,#258,#263,.T.);
#265=ORIENTED_EDGE('',*,*,#264,.F.);
#266=EDGE_LOOP('',(#265));
#267=FACE_OUTER_BOUND('',#266,.T.);
#268=ORIENTED_EDGE('',*,*,#227,.F.);
#269=EDGE_LOOP('',(#268));
#270=FACE_BOUND('',#269,.T.);
#271=ADVANCED_FACE('',(#267,#270),#256,.T.);
#272=CARTESIAN_POINT('',(0.6,0.0,0.0));
#273=DIRECTION('',(1.0,0.0,0.0));
#274=DIRECTION('',(0.0,0.0,-1.0));
#275=AXIS2_PLACEMENT_3D('',#272,#273,#274);
#276=TOROIDAL_SURFACE('',#275,3.45,0.6);
#277=CARTESIAN_POINT('',(-4.163336E-016,3.45,0.0));
#278=VERTEX_POINT('',#277);
#279=CARTESIAN_POINT('',(-4.163336E-016,0.0,0.0));
#280=DIRECTION('',(1.0,0.0,0.0));
#281=DIRECTION('',(0.0,-1.0,0.0));
#282=AXIS2_PLACEMENT_3D('',#279,#280,#281);
#283=CIRCLE('',#282,3.45);
#284=EDGE_CURVE('',#278,#278,#283,.T.);
#285=ORIENTED_EDGE('',*,*,#284,.T.);
#286=EDGE_LOOP('',(#285));
#287=FACE_OUTER_BOUND('',#286,.T.);
#288=CARTESIAN_POINT('',(0.6,4.050000000000001,-9.919639E-016));
#289=VERTEX_POINT('',#288);
#290=CARTESIAN_POINT('',(0.6,0.0,0.0));
#291=DIRECTION('',(-1.0,0.0,0.0));
#292=DIRECTION('',(0.0,-1.0,0.0));
#293=AXIS2_PLACEMENT_3D('',#290,#291,#292);
#294=CIRCLE('',#293,4.050000000000001);
#295=EDGE_CURVE('',#289,#289,#294,.T.);
#296=ORIENTED_EDGE('',*,*,#295,.T.);
#297=EDGE_LOOP('',(#296));
#298=FACE_BOUND('',#297,.T.);
#299=ADVANCED_FACE('',(#287,#298),#276,.T.);
#300=CARTESIAN_POINT('',(1.324999999999999,0.0,0.0));
#301=DIRECTION('',(1.0,0.0,0.0));
#302=DIRECTION('',(0.0,1.0,0.0));
#303=AXIS2_PLACEMENT_3D('',#300,#301,#302);
#304=CYLINDRICAL_SURFACE('',#303,4.050000000000001);
#305=CARTESIAN_POINT('',(2.649999999999999,4.050000000000001,0.0));
#306=VERTEX_POINT('',#305);
#307=CARTESIAN_POINT('',(2.649999999999999,0.0,0.0));
#308=DIRECTION('',(1.0,0.0,0.0));
#309=DIRECTION('',(0.0,1.0,0.0));
#310=AXIS2_PLACEMENT_3D('',#307,#308,#309);
#311=CIRCLE('',#310,4.050000000000001);
#312=EDGE_CURVE('',#306,#306,#311,.T.);
#313=ORIENTED_EDGE('',*,*,#312,.F.);
#314=EDGE_LOOP('',(#313));
#315=FACE_OUTER_BOUND('',#314,.T.);
#316=ORIENTED_EDGE('',*,*,#295,.F.);
#317=EDGE_LOOP('',(#316));
#318=FACE_BOUND('',#317,.T.);
#319=ADVANCED_FACE('',(#315,#318),#304,.T.);
#320=CARTESIAN_POINT('',(-4.163336E-016,3.262499999999998,0.0));
#321=DIRECTION('',(-1.0,0.0,0.0));
#322=DIRECTION('',(0.0,0.0,1.0));
#323=AXIS2_PLACEMENT_3D('',#320,#321,#322);
#324=PLANE('',#323);
#325=ORIENTED_EDGE('',*,*,#284,.F.);
#326=EDGE_LOOP('',(#325));
#327=FACE_OUTER_BOUND('',#326,.T.);
#328=CARTESIAN_POINT('',(0.0,2.474999999999996,0.0));
#329=VERTEX_POINT('',#328);
#330=CARTESIAN_POINT('',(0.0,0.0,0.0));
#331=DIRECTION('',(1.0,0.0,0.0));
#332=DIRECTION('',(0.0,1.0,0.0));
#333=AXIS2_PLACEMENT_3D('',#330,#331,#332);
#334=CIRCLE('',#333,2.474999999999996);
#335=EDGE_CURVE('',#329,#329,#334,.T.);
#336=ORIENTED_EDGE('',*,*,#335,.T.);
#337=EDGE_LOOP('',(#336));
#338=FACE_BOUND('',#337,.T.);
#339=ADVANCED_FACE('',(#327,#338),#324,.T.);
#340=CARTESIAN_POINT('',(6.760786437626905,0.0,0.0));
#341=DIRECTION('',(1.0,0.0,0.0));
#342=DIRECTION('',(0.0,0.0,-1.0));
#343=AXIS2_PLACEMENT_3D('',#340,#341,#342);
#344=TOROIDAL_SURFACE('',#343,4.325,1.0);
#345=CARTESIAN_POINT('',(6.760786437626905,3.325,0.0));
#346=VERTEX_POINT('',#345);
#347=CARTESIAN_POINT('',(6.760786437626905,0.0,0.0));
#348=DIRECTION('',(1.0,0.0,0.0));
#349=DIRECTION('',(0.0,-1.0,0.0));
#350=AXIS2_PLACEMENT_3D('',#347,#348,#349);
#351=CIRCLE('',#350,3.325);
#352=EDGE_CURVE('',#346,#346,#351,.T.);
#353=ORIENTED_EDGE('',*,*,#352,.T.);
#354=EDGE_LOOP('',(#353));
#355=FACE_OUTER_BOUND('',#354,.T.);
#356=CARTESIAN_POINT('',(7.467893218813453,3.617893218813453,-8.861283E-016));
#357=VERTEX_POINT('',#356);
#358=CARTESIAN_POINT('',(7.467893218813453,0.0,-4.430641E-016));
#359=DIRECTION('',(-1.0,0.0,0.0));
#360=DIRECTION('',(0.0,-1.0,0.0));
#361=AXIS2_PLACEMENT_3D('',#358,#359,#360);
#362=CIRCLE('',#361,3.617893218813453);
#363=EDGE_CURVE('',#357,#357,#362,.T.);
#364=ORIENTED_EDGE('',*,*,#363,.T.);
#365=EDGE_LOOP('',(#364));
#366=FACE_BOUND('',#365,.T.);
#367=ADVANCED_FACE('',(#355,#366),#344,.F.);
#368=CARTESIAN_POINT('',(6.225000000000001,0.0,0.0));
#369=DIRECTION('',(1.0,0.0,0.0));
#370=DIRECTION('',(0.0,1.0,0.0));
#371=AXIS2_PLACEMENT_3D('',#368,#369,#370);
#372=CYLINDRICAL_SURFACE('',#371,3.325);
#373=CARTESIAN_POINT('',(5.689213562373094,3.325,-8.143901E-016));
#374=VERTEX_POINT('',#373);
#375=CARTESIAN_POINT('',(5.689213562373094,0.0,0.0));
#376=DIRECTION('',(-1.0,0.0,0.0));
#377=DIRECTION('',(0.0,-1.0,0.0));
#378=AXIS2_PLACEMENT_3D('',#375,#376,#377);
#379=CIRCLE('',#378,3.325);
#380=EDGE_CURVE('',#374,#374,#379,.T.);
#381=ORIENTED_EDGE('',*,*,#380,.F.);
#382=EDGE_LOOP('',(#381));
#383=FACE_OUTER_BOUND('',#382,.T.);
#384=ORIENTED_EDGE('',*,*,#352,.F.);
#385=EDGE_LOOP('',(#384));
#386=FACE_BOUND('',#385,.T.);
#387=ADVANCED_FACE('',(#383,#386),#372,.T.);
#388=CARTESIAN_POINT('',(7.762499999999999,0.0,0.0));
#389=DIRECTION('',(1.0,0.0,0.0));
#390=DIRECTION('',(0.0,1.0,0.0));
#391=AXIS2_PLACEMENT_3D('',#388,#389,#390);
#392=CONICAL_SURFACE('',#391,3.9125,45.000000000000043);
#393=ORIENTED_EDGE('',*,*,#244,.F.);
#394=EDGE_LOOP('',(#393));
#395=FACE_OUTER_BOUND('',#394,.T.);
#396=ORIENTED_EDGE('',*,*,#363,.F.);
#397=EDGE_LOOP('',(#396));
#398=FACE_BOUND('',#397,.T.);
#399=ADVANCED_FACE('',(#395,#398),#392,.T.);
#400=CARTESIAN_POINT('',(5.689213562373094,0.0,0.0));
#401=DIRECTION('',(1.0,0.0,0.0));
#402=DIRECTION('',(0.0,0.0,-1.0));
#403=AXIS2_PLACEMENT_3D('',#400,#401,#402);
#404=TOROIDAL_SURFACE('',#403,4.325,1.0);
#405=CARTESIAN_POINT('',(4.982106781186547,3.617893218813451,-1.232595E-031));
#406=VERTEX_POINT('',#405);
#407=CARTESIAN_POINT('',(4.982106781186547,0.0,-4.430641E-016));
#408=DIRECTION('',(1.0,0.0,0.0));
#409=DIRECTION('',(0.0,-1.0,0.0));
#410=AXIS2_PLACEMENT_3D('',#407,#408,#409);
#411=CIRCLE('',#410,3.617893218813451);
#412=EDGE_CURVE('',#406,#406,#411,.T.);
#413=ORIENTED_EDGE('',*,*,#412,.T.);
#414=EDGE_LOOP('',(#413));
#415=FACE_OUTER_BOUND('',#414,.T.);
#416=ORIENTED_EDGE('',*,*,#380,.T.);
#417=EDGE_LOOP('',(#416));
#418=FACE_BOUND('',#417,.T.);
#419=ADVANCED_FACE('',(#415,#418),#404,.F.);
#420=CARTESIAN_POINT('',(4.687499999999999,0.0,0.0));
#421=DIRECTION('',(-1.0,0.0,0.0));
#422=DIRECTION('',(0.0,1.0,0.0));
#423=AXIS2_PLACEMENT_3D('',#420,#421,#422);
#424=CONICAL_SURFACE('',#423,3.9125,44.999999999999979);
#425=CARTESIAN_POINT('',(4.099999999999999,4.5,0.0));
#426=VERTEX_POINT('',#425);
#427=CARTESIAN_POINT('',(4.099999999999999,0.0,0.0));
#428=DIRECTION('',(1.0,0.0,0.0));
#429=DIRECTION('',(0.0,1.0,0.0));
#430=AXIS2_PLACEMENT_3D('',#427,#428,#429);
#431=CIRCLE('',#430,4.5);
#432=EDGE_CURVE('',#426,#426,#431,.T.);
#433=ORIENTED_EDGE('',*,*,#432,.T.);
#434=EDGE_LOOP('',(#433));
#435=FACE_OUTER_BOUND('',#434,.T.);
#436=ORIENTED_EDGE('',*,*,#412,.F.);
#437=EDGE_LOOP('',(#436));
#438=FACE_BOUND('',#437,.T.);
#439=ADVANCED_FACE('',(#435,#438),#424,.T.);
#440=CARTESIAN_POINT('',(2.874999999999999,0.0,0.0));
#441=DIRECTION('',(1.0,0.0,0.0));
#442=DIRECTION('',(0.0,1.0,0.0));
#443=AXIS2_PLACEMENT_3D('',#440,#441,#442);
#444=CONICAL_SURFACE('',#443,4.275,45.000000000000028);
#445=CARTESIAN_POINT('',(3.099999999999998,4.5,0.0));
#446=VERTEX_POINT('',#445);
#447=CARTESIAN_POINT('',(3.099999999999998,0.0,0.0));
#448=DIRECTION('',(1.0,0.0,0.0));
#449=DIRECTION('',(0.0,1.0,0.0));
#450=AXIS2_PLACEMENT_3D('',#447,#448,#449);
#451=CIRCLE('',#450,4.5);
#452=EDGE_CURVE('',#446,#446,#451,.T.);
#453=ORIENTED_EDGE('',*,*,#452,.F.);
#454=EDGE_LOOP('',(#453));
#455=FACE_OUTER_BOUND('',#454,.T.);
#456=ORIENTED_EDGE('',*,*,#312,.T.);
#457=EDGE_LOOP('',(#456));
#458=FACE_BOUND('',#457,.T.);
#459=ADVANCED_FACE('',(#455,#458),#444,.T.);
#460=CARTESIAN_POINT('',(3.599999999999999,0.0,0.0));
#461=DIRECTION('',(1.0,0.0,0.0));
#462=DIRECTION('',(0.0,1.0,0.0));
#463=AXIS2_PLACEMENT_3D('',#460,#461,#462);
#464=CYLINDRICAL_SURFACE('',#463,4.5);
#465=ORIENTED_EDGE('',*,*,#432,.F.);
#466=EDGE_LOOP('',(#465));
#467=FACE_OUTER_BOUND('',#466,.T.);
#468=ORIENTED_EDGE('',*,*,#452,.T.);
#469=EDGE_LOOP('',(#468));
#470=FACE_BOUND('',#469,.T.);
#471=ADVANCED_FACE('',(#467,#470),#464,.T.);
#472=CARTESIAN_POINT('',(15.049999999999999,0.0,0.0));
#473=DIRECTION('',(1.0,0.0,0.0));
#474=DIRECTION('',(0.0,1.0,0.0));
#475=AXIS2_PLACEMENT_3D('',#472,#473,#474);
#476=CYLINDRICAL_SURFACE('',#475,6.000000000000001);
#477=ORIENTED_EDGE('',*,*,#176,.F.);
#478=EDGE_LOOP('',(#477));
#479=FACE_OUTER_BOUND('',#478,.T.);
#480=ORIENTED_EDGE('',*,*,#264,.T.);
#481=EDGE_LOOP('',(#480));
#482=FACE_BOUND('',#481,.T.);
#483=ADVANCED_FACE('',(#479,#482),#476,.T.);
#484=CARTESIAN_POINT('',(24.000000000000004,5.137500000000001,0.0));
#485=DIRECTION('',(-1.0,0.0,0.0));
#486=DIRECTION('',(0.0,0.0,1.0));
#487=AXIS2_PLACEMENT_3D('',#484,#485,#486);
#488=PLANE('',#487);
#489=CARTESIAN_POINT('',(24.000000000000004,5.25,0.0));
#490=VERTEX_POINT('',#489);
#491=CARTESIAN_POINT('',(24.000000000000004,0.0,0.0));
#492=DIRECTION('',(1.0,0.0,0.0));
#493=DIRECTION('',(0.0,1.0,0.0));
#494=AXIS2_PLACEMENT_3D('',#491,#492,#493);
#495=CIRCLE('',#494,5.25);
#496=EDGE_CURVE('',#490,#490,#495,.T.);
#497=ORIENTED_EDGE('',*,*,#496,.F.);
#498=EDGE_LOOP('',(#497));
#499=FACE_OUTER_BOUND('',#498,.T.);
#500=ORIENTED_EDGE('',*,*,#196,.T.);
#501=EDGE_LOOP('',(#500));
#502=FACE_BOUND('',#501,.T.);
#503=ADVANCED_FACE('',(#499,#502),#488,.T.);
#504=CARTESIAN_POINT('',(24.300000000000001,0.0,0.0));
#505=DIRECTION('',(1.0,0.0,0.0));
#506=DIRECTION('',(0.0,0.0,-1.0));
#507=AXIS2_PLACEMENT_3D('',#504,#505,#506);
#508=TOROIDAL_SURFACE('',#507,5.25,0.299999999999999);
#509=CARTESIAN_POINT('',(24.352094453300079,5.545442325903665,0.0));
#510=VERTEX_POINT('',#509);
#511=CARTESIAN_POINT('',(24.352094453300079,0.0,0.0));
#512=DIRECTION('',(1.0,0.0,0.0));
#513=DIRECTION('',(0.0,1.0,0.0));
#514=AXIS2_PLACEMENT_3D('',#511,#512,#513);
#515=CIRCLE('',#514,5.545442325903665);
#516=EDGE_CURVE('',#510,#510,#515,.T.);
#517=ORIENTED_EDGE('',*,*,#516,.F.);
#518=EDGE_LOOP('',(#517));
#519=FACE_OUTER_BOUND('',#518,.T.);
#520=ORIENTED_EDGE('',*,*,#496,.T.);
#521=EDGE_LOOP('',(#520));
#522=FACE_BOUND('',#521,.T.);
#523=ADVANCED_FACE('',(#519,#522),#508,.T.);
#524=CARTESIAN_POINT('',(26.426047226650038,0.0,0.0));
#525=DIRECTION('',(-1.0,0.0,0.0));
#526=DIRECTION('',(0.0,1.0,0.0));
#527=AXIS2_PLACEMENT_3D('',#524,#525,#526);
#528=CONICAL_SURFACE('',#527,5.179748495246919,10.0);
#529=CARTESIAN_POINT('',(28.5,4.814054664590173,0.0));
#530=VERTEX_POINT('',#529);
#531=CARTESIAN_POINT('',(28.5,0.0,0.0));
#532=DIRECTION('',(1.0,0.0,0.0));
#533=DIRECTION('',(0.0,1.0,0.0));
#534=AXIS2_PLACEMENT_3D('',#531,#532,#533);
#535=CIRCLE('',#534,4.814054664590173);
#536=EDGE_CURVE('',#530,#530,#535,.T.);
#537=ORIENTED_EDGE('',*,*,#536,.F.);
#538=EDGE_LOOP('',(#537));
#539=FACE_OUTER_BOUND('',#538,.T.);
#540=ORIENTED_EDGE('',*,*,#516,.T.);
#541=EDGE_LOOP('',(#540));
#542=FACE_BOUND('',#541,.T.);
#543=ADVANCED_FACE('',(#539,#542),#528,.T.);
#544=CARTESIAN_POINT('',(28.5,5.032027332295086,0.0));
#545=DIRECTION('',(-1.0,0.0,0.0));
#546=DIRECTION('',(0.0,0.0,1.0));
#547=AXIS2_PLACEMENT_3D('',#544,#545,#546);
#548=PLANE('',#547);
#549=CARTESIAN_POINT('',(28.5,5.25,0.0));
#550=VERTEX_POINT('',#549);
#551=CARTESIAN_POINT('',(28.5,0.0,0.0));
#552=DIRECTION('',(1.0,0.0,0.0));
#553=DIRECTION('',(0.0,1.0,0.0));
#554=AXIS2_PLACEMENT_3D('',#551,#552,#553);
#555=CIRCLE('',#554,5.25);
#556=EDGE_CURVE('',#550,#550,#555,.T.);
#557=ORIENTED_EDGE('',*,*,#556,.F.);
#558=EDGE_LOOP('',(#557));
#559=FACE_OUTER_BOUND('',#558,.T.);
#560=ORIENTED_EDGE('',*,*,#536,.T.);
#561=EDGE_LOOP('',(#560));
#562=FACE_BOUND('',#561,.T.);
#563=ADVANCED_FACE('',(#559,#562),#548,.T.);
#564=CARTESIAN_POINT('',(28.799999999999997,0.0,0.0));
#565=DIRECTION('',(1.0,0.0,0.0));
#566=DIRECTION('',(0.0,0.0,-1.0));
#567=AXIS2_PLACEMENT_3D('',#564,#565,#566);
#568=TOROIDAL_SURFACE('',#567,5.25,0.3);
#569=ORIENTED_EDGE('',*,*,#108,.F.);
#570=EDGE_LOOP('',(#569));
#571=FACE_OUTER_BOUND('',#570,.T.);
#572=ORIENTED_EDGE('',*,*,#556,.T.);
#573=EDGE_LOOP('',(#572));
#574=FACE_BOUND('',#573,.T.);
#575=ADVANCED_FACE('',(#571,#574),#568,.T.);
#576=CARTESIAN_POINT('',(25.0,0.0,0.0));
#577=DIRECTION('',(1.0,0.0,0.0));
#578=DIRECTION('',(0.0,1.0,0.0));
#579=AXIS2_PLACEMENT_3D('',#576,#577,#578);
#580=CYLINDRICAL_SURFACE('',#579,4.0);
#581=CARTESIAN_POINT('',(17.0,3.999999999999996,0.0));
#582=VERTEX_POINT('',#581);
#583=CARTESIAN_POINT('',(17.0,0.0,0.0));
#584=DIRECTION('',(1.0,0.0,0.0));
#585=DIRECTION('',(0.0,1.0,0.0));
#586=AXIS2_PLACEMENT_3D('',#583,#584,#585);
#587=CIRCLE('',#586,3.999999999999996);
#588=EDGE_CURVE('',#582,#582,#587,.T.);
#589=ORIENTED_EDGE('',*,*,#588,.F.);
#590=EDGE_LOOP('',(#589));
#591=FACE_OUTER_BOUND('',#590,.T.);
#592=ORIENTED_EDGE('',*,*,#131,.T.);
#593=EDGE_LOOP('',(#592));
#594=FACE_BOUND('',#593,.T.);
#595=ADVANCED_FACE('',(#591,#594),#580,.F.);
#596=CARTESIAN_POINT('',(16.559770419742918,0.0,0.0));
#597=DIRECTION('',(1.0,0.0,0.0));
#598=DIRECTION('',(0.0,1.0,0.0));
#599=AXIS2_PLACEMENT_3D('',#596,#597,#598);
#600=CONICAL_SURFACE('',#599,3.2375,60.000000000000043);
#601=CARTESIAN_POINT('',(16.119540839485829,2.475000000000004,0.0));
#602=VERTEX_POINT('',#601);
#603=CARTESIAN_POINT('',(16.119540839485829,0.0,0.0));
#604=DIRECTION('',(1.0,0.0,0.0));
#605=DIRECTION('',(0.0,1.0,0.0));
#606=AXIS2_PLACEMENT_3D('',#603,#604,#605);
#607=CIRCLE('',#606,2.475000000000004);
#608=EDGE_CURVE('',#602,#602,#607,.T.);
#609=ORIENTED_EDGE('',*,*,#608,.F.);
#610=EDGE_LOOP('',(#609));
#611=FACE_OUTER_BOUND('',#610,.T.);
#612=ORIENTED_EDGE('',*,*,#588,.T.);
#613=EDGE_LOOP('',(#612));
#614=FACE_BOUND('',#613,.T.);
#615=ADVANCED_FACE('',(#611,#614),#600,.F.);
#616=CARTESIAN_POINT('',(8.059770419742915,0.0,0.0));
#617=DIRECTION('',(1.0,0.0,0.0));
#618=DIRECTION('',(0.0,1.0,0.0));
#619=AXIS2_PLACEMENT_3D('',#616,#617,#618);
#620=CYLINDRICAL_SURFACE('',#619,2.475);
#621=ORIENTED_EDGE('',*,*,#335,.F.);
#622=EDGE_LOOP('',(#621));
#623=FACE_OUTER_BOUND('',#622,.T.);
#624=ORIENTED_EDGE('',*,*,#608,.T.);
#625=EDGE_LOOP('',(#624));
#626=FACE_BOUND('',#625,.T.);
#627=ADVANCED_FACE('',(#623,#626),#620,.F.);
#628=CLOSED_SHELL('',(#95,#115,#135,#163,#183,#203,#231,#251,#271,#299,#319,#339,#367,#387,#399,#419,#439,#459,#471,#483,#503,#523,#543,#563,#575,#595,#615,#627));
#629=MANIFOLD_SOLID_BREP('Solid1',#628);
#630=COLOUR_RGB('Metal-Steel',0.639216005802155,0.639216005802155,0.662745475769043);
#631=FILL_AREA_STYLE_COLOUR('Metal-Steel',#630);
#632=FILL_AREA_STYLE('Metal-Steel',(#631));
#633=SURFACE_STYLE_FILL_AREA(#632);
#634=SURFACE_SIDE_STYLE('Metal-Steel',(#633));
#635=SURFACE_STYLE_USAGE(.BOTH.,#634);
#636=PRESENTATION_STYLE_ASSIGNMENT((#635));
#637=STYLED_ITEM('',(#636),#629);
#638=MECHANICAL_DESIGN_GEOMETRIC_PRESENTATION_REPRESENTATION('',(#637),#36);
#639=ADVANCED_BREP_SHAPE_REPRESENTATION('ABSR',(#629),#36);
#640=SHAPE_REPRESENTATION_RELATIONSHIP('SRR','None',#639,#41);
ENDSEC;
END-ISO-10303-21;
