ISO-10303-21;
HEADER;
FILE_DESCRIPTION(('STEP AP214'),'1');
FILE_NAME('C:/PartsXMLTools/RobotParts/Generated/STEP_SAT/CAD/Temp/0205_18_00.stp','2016-07-07T14:35:03',('TraceParts'),('TraceParts S.A.'),'Spatial InterOp 3D',' ',' ');
FILE_SCHEMA(('automotive_design'));
ENDSEC;
DATA;
#1=PRODUCT_DEFINITION_CONTEXT('',#9,'design');
#2=APPLICATION_PROTOCOL_DEFINITION('INTERNATIONAL STANDARD','automotive_design',1994,#9);
#3=PRODUCT_CATEGORY_RELATIONSHIP('NONE','NONE',#10,#11);
#4=SHAPE_DEFINITION_REPRESENTATION(#12,#13);
#5= (GEOMETRIC_REPRESENTATION_CONTEXT(3)GLOBAL_UNCERTAINTY_ASSIGNED_CONTEXT((#16))GLOBAL_UNIT_ASSIGNED_CONTEXT((#18,#19,#20))REPRESENTATION_CONTEXT('NONE','WORKSPACE'));
#9=APPLICATION_CONTEXT(' ');
#10=PRODUCT_CATEGORY('part','NONE');
#11=PRODUCT_RELATED_PRODUCT_CATEGORY('detail',' ',(#22));
#12=PRODUCT_DEFINITION_SHAPE('NONE','NONE',#23);
#13=ADVANCED_BREP_SHAPE_REPRESENTATION('1',(#24,#25),#5);
#16=UNCERTAINTY_MEASURE_WITH_UNIT(LENGTH_MEASURE(1.0E-006),#18,'','');
#18= (CONVERSION_BASED_UNIT('MILLIMETRE',#28)LENGTH_UNIT()NAMED_UNIT(#31));
#19= (NAMED_UNIT(#33)PLANE_ANGLE_UNIT()SI_UNIT($,.RADIAN.));
#20= (NAMED_UNIT(#33)SOLID_ANGLE_UNIT()SI_UNIT($,.STERADIAN.));
#22=PRODUCT('1','1','PART-1-DESC',(#39));
#23=PRODUCT_DEFINITION('NONE','NONE',#40,#1);
#24=MANIFOLD_SOLID_BREP('1',#41);
#25=AXIS2_PLACEMENT_3D('',#42,#43,#44);
#28=LENGTH_MEASURE_WITH_UNIT(LENGTH_MEASURE(1.0),#45);
#31=DIMENSIONAL_EXPONENTS(1.0,0.0,0.0,0.0,0.0,0.0,0.0);
#33=DIMENSIONAL_EXPONENTS(0.0,0.0,0.0,0.0,0.0,0.0,0.0);
#39=PRODUCT_CONTEXT('',#9,'mechanical');
#40=PRODUCT_DEFINITION_FORMATION_WITH_SPECIFIED_SOURCE(' ','NONE',#22,.NOT_KNOWN.);
#41=CLOSED_SHELL('',(#46,#47,#48,#49,#50,#51,#52,#53,#54,#55,#56,#57,#58,#59,#60,#61,#62,#63));
#42=CARTESIAN_POINT('',(0.0,0.0,0.0));
#43=DIRECTION('',(0.0,0.0,1.0));
#44=DIRECTION('',(1.0,0.0,0.0));
#45= (NAMED_UNIT(#31)LENGTH_UNIT()SI_UNIT(.MILLI.,.METRE.));
#46=ADVANCED_FACE('',(#65),#66,.T.);
#47=ADVANCED_FACE('',(#67),#68,.T.);
#48=ADVANCED_FACE('',(#69),#70,.T.);
#49=ADVANCED_FACE('',(#71),#72,.F.);
#50=ADVANCED_FACE('',(#73),#74,.F.);
#51=ADVANCED_FACE('',(#75,#76),#77,.F.);
#52=ADVANCED_FACE('',(#78),#79,.F.);
#53=ADVANCED_FACE('',(#80),#81,.F.);
#54=ADVANCED_FACE('',(#82),#83,.F.);
#55=ADVANCED_FACE('',(#84),#85,.F.);
#56=ADVANCED_FACE('',(#86),#87,.F.);
#57=ADVANCED_FACE('',(#88),#89,.F.);
#58=ADVANCED_FACE('',(#90),#91,.T.);
#59=ADVANCED_FACE('',(#92),#93,.T.);
#60=ADVANCED_FACE('',(#94),#95,.T.);
#61=ADVANCED_FACE('',(#96),#97,.T.);
#62=ADVANCED_FACE('',(#98,#99),#100,.T.);
#63=ADVANCED_FACE('',(#101),#102,.T.);
#65=FACE_OUTER_BOUND('',#103,.T.);
#66=CONICAL_SURFACE('',#104,8.007984375,0.785398163397448);
#67=FACE_OUTER_BOUND('',#105,.T.);
#68=CONICAL_SURFACE('',#106,8.5525,0.0312398334302684);
#69=FACE_OUTER_BOUND('',#107,.T.);
#70=CONICAL_SURFACE('',#108,7.7274453125,0.800781565178044);
#71=FACE_OUTER_BOUND('',#109,.T.);
#72=CYLINDRICAL_SURFACE('',#110,4.7355);
#73=FACE_OUTER_BOUND('',#111,.T.);
#74=CYLINDRICAL_SURFACE('',#112,4.7355);
#75=FACE_BOUND('',#113,.T.);
#76=FACE_OUTER_BOUND('',#114,.T.);
#77=PLANE('',#115);
#78=FACE_OUTER_BOUND('',#116,.T.);
#79=PLANE('',#117);
#80=FACE_OUTER_BOUND('',#118,.T.);
#81=PLANE('',#119);
#82=FACE_OUTER_BOUND('',#120,.T.);
#83=PLANE('',#121);
#84=FACE_OUTER_BOUND('',#122,.T.);
#85=PLANE('',#123);
#86=FACE_OUTER_BOUND('',#124,.T.);
#87=PLANE('',#125);
#88=FACE_OUTER_BOUND('',#126,.T.);
#89=PLANE('',#127);
#90=FACE_OUTER_BOUND('',#128,.T.);
#91=PLANE('',#129);
#92=FACE_OUTER_BOUND('',#130,.T.);
#93=CONICAL_SURFACE('',#131,7.7274453125,0.800781565178044);
#94=FACE_OUTER_BOUND('',#132,.T.);
#95=CONICAL_SURFACE('',#133,8.5525,0.0312398334302684);
#96=FACE_OUTER_BOUND('',#134,.T.);
#97=CONICAL_SURFACE('',#135,8.007984375,0.785398163397448);
#98=FACE_BOUND('',#136,.T.);
#99=FACE_OUTER_BOUND('',#137,.T.);
#100=PLANE('',#138);
#101=FACE_OUTER_BOUND('',#139,.T.);
#102=PLANE('',#140);
#103=EDGE_LOOP('',(#141,#142,#143,#144));
#104=AXIS2_PLACEMENT_3D('',#145,#146,#147);
#105=EDGE_LOOP('',(#148,#149,#150,#151));
#106=AXIS2_PLACEMENT_3D('',#152,#153,#154);
#107=EDGE_LOOP('',(#155,#156,#157,#158));
#108=AXIS2_PLACEMENT_3D('',#159,#160,#161);
#109=EDGE_LOOP('',(#162,#163,#164,#165));
#110=AXIS2_PLACEMENT_3D('',#166,#167,#168);
#111=EDGE_LOOP('',(#169,#170,#171,#172));
#112=AXIS2_PLACEMENT_3D('',#173,#174,#175);
#113=EDGE_LOOP('',(#176,#177,#178,#179,#180,#181));
#114=EDGE_LOOP('',(#182,#183));
#115=AXIS2_PLACEMENT_3D('',#184,#185,#186);
#116=EDGE_LOOP('',(#187,#188,#189,#190));
#117=AXIS2_PLACEMENT_3D('',#191,#192,#193);
#118=EDGE_LOOP('',(#194,#195,#196,#197));
#119=AXIS2_PLACEMENT_3D('',#198,#199,#200);
#120=EDGE_LOOP('',(#201,#202,#203,#204));
#121=AXIS2_PLACEMENT_3D('',#205,#206,#207);
#122=EDGE_LOOP('',(#208,#209,#210,#211));
#123=AXIS2_PLACEMENT_3D('',#212,#213,#214);
#124=EDGE_LOOP('',(#215,#216,#217,#218));
#125=AXIS2_PLACEMENT_3D('',#219,#220,#221);
#126=EDGE_LOOP('',(#222,#223,#224,#225));
#127=AXIS2_PLACEMENT_3D('',#226,#227,#228);
#128=EDGE_LOOP('',(#229,#230));
#129=AXIS2_PLACEMENT_3D('',#231,#232,#233);
#130=EDGE_LOOP('',(#234,#235,#236,#237));
#131=AXIS2_PLACEMENT_3D('',#238,#239,#240);
#132=EDGE_LOOP('',(#241,#242,#243,#244));
#133=AXIS2_PLACEMENT_3D('',#245,#246,#247);
#134=EDGE_LOOP('',(#248,#249,#250,#251));
#135=AXIS2_PLACEMENT_3D('',#252,#253,#254);
#136=EDGE_LOOP('',(#255,#256,#257,#258,#259,#260));
#137=EDGE_LOOP('',(#261,#262));
#138=AXIS2_PLACEMENT_3D('',#263,#264,#265);
#139=EDGE_LOOP('',(#266,#267));
#140=AXIS2_PLACEMENT_3D('',#268,#269,#270);
#141=ORIENTED_EDGE('',*,*,#271,.F.);
#142=ORIENTED_EDGE('',*,*,#272,.T.);
#143=ORIENTED_EDGE('',*,*,#273,.F.);
#144=ORIENTED_EDGE('',*,*,#274,.F.);
#145=CARTESIAN_POINT('',(0.0,-0.674250000000001,0.0));
#146=DIRECTION('',(0.0,-1.0,-0.0));
#147=DIRECTION('',(1.0,0.0,0.0));
#148=ORIENTED_EDGE('',*,*,#275,.F.);
#149=ORIENTED_EDGE('',*,*,#276,.T.);
#150=ORIENTED_EDGE('',*,*,#277,.F.);
#151=ORIENTED_EDGE('',*,*,#272,.F.);
#152=CARTESIAN_POINT('',(0.0,-5.5,0.0));
#153=DIRECTION('',(-0.0,1.0,-0.0));
#154=DIRECTION('',(1.0,0.0,0.0));
#155=ORIENTED_EDGE('',*,*,#278,.F.);
#156=ORIENTED_EDGE('',*,*,#279,.T.);
#157=ORIENTED_EDGE('',*,*,#280,.F.);
#158=ORIENTED_EDGE('',*,*,#276,.F.);
#159=CARTESIAN_POINT('',(0.0,-10.32575,0.0));
#160=DIRECTION('',(-0.0,1.0,-0.0));
#161=DIRECTION('',(1.0,0.0,0.0));
#162=ORIENTED_EDGE('',*,*,#281,.F.);
#163=ORIENTED_EDGE('',*,*,#282,.T.);
#164=ORIENTED_EDGE('',*,*,#283,.F.);
#165=ORIENTED_EDGE('',*,*,#284,.T.);
#166=CARTESIAN_POINT('',(0.0,-7.0,0.0));
#167=DIRECTION('',(-0.0,1.0,0.0));
#168=DIRECTION('',(1.0,0.0,0.0));
#169=ORIENTED_EDGE('',*,*,#281,.T.);
#170=ORIENTED_EDGE('',*,*,#285,.T.);
#171=ORIENTED_EDGE('',*,*,#283,.T.);
#172=ORIENTED_EDGE('',*,*,#286,.T.);
#173=CARTESIAN_POINT('',(0.0,-7.0,0.0));
#174=DIRECTION('',(-0.0,1.0,0.0));
#175=DIRECTION('',(1.0,0.0,0.0));
#176=ORIENTED_EDGE('',*,*,#287,.F.);
#177=ORIENTED_EDGE('',*,*,#288,.F.);
#178=ORIENTED_EDGE('',*,*,#289,.F.);
#179=ORIENTED_EDGE('',*,*,#290,.F.);
#180=ORIENTED_EDGE('',*,*,#291,.F.);
#181=ORIENTED_EDGE('',*,*,#292,.F.);
#182=ORIENTED_EDGE('',*,*,#282,.F.);
#183=ORIENTED_EDGE('',*,*,#286,.F.);
#184=CARTESIAN_POINT('',(0.0,-6.0,0.0));
#185=DIRECTION('',(-0.0,1.0,0.0));
#186=DIRECTION('',(1.0,0.0,0.0));
#187=ORIENTED_EDGE('',*,*,#290,.T.);
#188=ORIENTED_EDGE('',*,*,#293,.F.);
#189=ORIENTED_EDGE('',*,*,#294,.F.);
#190=ORIENTED_EDGE('',*,*,#295,.T.);
#191=CARTESIAN_POINT('',(-3.46410161513775,1.0,2.0));
#192=DIRECTION('',(-0.866025403784439,0.0,0.5));
#193=DIRECTION('',(-0.5,-0.0,-0.866025403784439));
#194=ORIENTED_EDGE('',*,*,#289,.T.);
#195=ORIENTED_EDGE('',*,*,#296,.F.);
#196=ORIENTED_EDGE('',*,*,#297,.F.);
#197=ORIENTED_EDGE('',*,*,#293,.T.);
#198=CARTESIAN_POINT('',(-3.46410161513775,1.0,-2.0));
#199=DIRECTION('',(-0.866025403784439,-0.0,-0.5));
#200=DIRECTION('',(0.5,0.0,-0.866025403784439));
#201=ORIENTED_EDGE('',*,*,#288,.T.);
#202=ORIENTED_EDGE('',*,*,#298,.F.);
#203=ORIENTED_EDGE('',*,*,#299,.F.);
#204=ORIENTED_EDGE('',*,*,#296,.T.);
#205=CARTESIAN_POINT('',(-8.88178419700125E-016,1.0,-4.0));
#206=DIRECTION('',(0.0,0.0,-1.0));
#207=DIRECTION('',(1.0,0.0,0.0));
#208=ORIENTED_EDGE('',*,*,#287,.T.);
#209=ORIENTED_EDGE('',*,*,#300,.F.);
#210=ORIENTED_EDGE('',*,*,#301,.F.);
#211=ORIENTED_EDGE('',*,*,#298,.T.);
#212=CARTESIAN_POINT('',(3.46410161513775,1.0,-2.0));
#213=DIRECTION('',(0.866025403784438,0.0,-0.5));
#214=DIRECTION('',(0.5,0.0,0.866025403784438));
#215=ORIENTED_EDGE('',*,*,#292,.T.);
#216=ORIENTED_EDGE('',*,*,#302,.F.);
#217=ORIENTED_EDGE('',*,*,#303,.F.);
#218=ORIENTED_EDGE('',*,*,#300,.T.);
#219=CARTESIAN_POINT('',(3.46410161513776,1.0,2.0));
#220=DIRECTION('',(0.866025403784439,0.0,0.5));
#221=DIRECTION('',(-0.5,0.0,0.866025403784439));
#222=ORIENTED_EDGE('',*,*,#291,.T.);
#223=ORIENTED_EDGE('',*,*,#295,.F.);
#224=ORIENTED_EDGE('',*,*,#304,.F.);
#225=ORIENTED_EDGE('',*,*,#302,.T.);
#226=CARTESIAN_POINT('',(1.77635683940025E-015,1.0,4.0));
#227=DIRECTION('',(1.92296268638356E-016,0.0,1.0));
#228=DIRECTION('',(-1.0,0.0,1.92296268638356E-016));
#229=ORIENTED_EDGE('',*,*,#285,.F.);
#230=ORIENTED_EDGE('',*,*,#284,.F.);
#231=CARTESIAN_POINT('',(-2.85966536645874E-016,-8.0,0.0));
#232=DIRECTION('',(0.0,1.0,0.0));
#233=DIRECTION('',(0.0,0.0,1.0));
#234=ORIENTED_EDGE('',*,*,#278,.T.);
#235=ORIENTED_EDGE('',*,*,#305,.F.);
#236=ORIENTED_EDGE('',*,*,#280,.T.);
#237=ORIENTED_EDGE('',*,*,#306,.T.);
#238=CARTESIAN_POINT('',(0.0,-10.32575,0.0));
#239=DIRECTION('',(-0.0,1.0,-0.0));
#240=DIRECTION('',(1.0,0.0,0.0));
#241=ORIENTED_EDGE('',*,*,#275,.T.);
#242=ORIENTED_EDGE('',*,*,#307,.F.);
#243=ORIENTED_EDGE('',*,*,#277,.T.);
#244=ORIENTED_EDGE('',*,*,#305,.T.);
#245=CARTESIAN_POINT('',(0.0,-5.5,0.0));
#246=DIRECTION('',(-0.0,1.0,-0.0));
#247=DIRECTION('',(1.0,0.0,0.0));
#248=ORIENTED_EDGE('',*,*,#271,.T.);
#249=ORIENTED_EDGE('',*,*,#308,.F.);
#250=ORIENTED_EDGE('',*,*,#273,.T.);
#251=ORIENTED_EDGE('',*,*,#307,.T.);
#252=CARTESIAN_POINT('',(0.0,-0.674250000000001,0.0));
#253=DIRECTION('',(0.0,-1.0,-0.0));
#254=DIRECTION('',(1.0,0.0,0.0));
#255=ORIENTED_EDGE('',*,*,#294,.T.);
#256=ORIENTED_EDGE('',*,*,#297,.T.);
#257=ORIENTED_EDGE('',*,*,#299,.T.);
#258=ORIENTED_EDGE('',*,*,#301,.T.);
#259=ORIENTED_EDGE('',*,*,#303,.T.);
#260=ORIENTED_EDGE('',*,*,#304,.T.);
#261=ORIENTED_EDGE('',*,*,#274,.T.);
#262=ORIENTED_EDGE('',*,*,#308,.T.);
#263=CARTESIAN_POINT('',(3.6668671875,0.0,0.0));
#264=DIRECTION('',(2.42217231845168E-016,1.0,0.0));
#265=DIRECTION('',(1.0,-2.42217231845168E-016,0.0));
#266=ORIENTED_EDGE('',*,*,#279,.F.);
#267=ORIENTED_EDGE('',*,*,#306,.F.);
#268=CARTESIAN_POINT('',(3.5160625,-11.0,0.0));
#269=DIRECTION('',(-0.0,-1.0,-0.0));
#270=DIRECTION('',(-1.0,0.0,0.0));
#271=EDGE_CURVE('',#309,#310,#311,.T.);
#272=EDGE_CURVE('',#309,#312,#313,.T.);
#273=EDGE_CURVE('',#314,#312,#315,.T.);
#274=EDGE_CURVE('',#310,#314,#316,.T.);
#275=EDGE_CURVE('',#317,#309,#318,.T.);
#276=EDGE_CURVE('',#317,#319,#320,.T.);
#277=EDGE_CURVE('',#312,#319,#321,.T.);
#278=EDGE_CURVE('',#322,#317,#323,.T.);
#279=EDGE_CURVE('',#322,#324,#325,.T.);
#280=EDGE_CURVE('',#319,#324,#326,.T.);
#281=EDGE_CURVE('',#327,#328,#329,.T.);
#282=EDGE_CURVE('',#327,#330,#331,.T.);
#283=EDGE_CURVE('',#332,#330,#333,.T.);
#284=EDGE_CURVE('',#332,#328,#334,.T.);
#285=EDGE_CURVE('',#328,#332,#335,.T.);
#286=EDGE_CURVE('',#330,#327,#336,.T.);
#287=EDGE_CURVE('',#337,#338,#339,.T.);
#288=EDGE_CURVE('',#340,#337,#341,.T.);
#289=EDGE_CURVE('',#342,#340,#343,.T.);
#290=EDGE_CURVE('',#344,#342,#345,.T.);
#291=EDGE_CURVE('',#346,#344,#347,.T.);
#292=EDGE_CURVE('',#338,#346,#348,.T.);
#293=EDGE_CURVE('',#349,#342,#350,.T.);
#294=EDGE_CURVE('',#351,#349,#352,.T.);
#295=EDGE_CURVE('',#351,#344,#353,.T.);
#296=EDGE_CURVE('',#354,#340,#355,.T.);
#297=EDGE_CURVE('',#349,#354,#356,.T.);
#298=EDGE_CURVE('',#357,#337,#358,.T.);
#299=EDGE_CURVE('',#354,#357,#359,.T.);
#300=EDGE_CURVE('',#360,#338,#361,.T.);
#301=EDGE_CURVE('',#357,#360,#362,.T.);
#302=EDGE_CURVE('',#363,#346,#364,.T.);
#303=EDGE_CURVE('',#360,#363,#365,.T.);
#304=EDGE_CURVE('',#363,#351,#366,.T.);
#305=EDGE_CURVE('',#319,#317,#367,.T.);
#306=EDGE_CURVE('',#324,#322,#368,.T.);
#307=EDGE_CURVE('',#312,#309,#369,.T.);
#308=EDGE_CURVE('',#314,#310,#370,.T.);
#309=VERTEX_POINT('',#371);
#310=VERTEX_POINT('',#372);
#311=LINE('',#373,#374);
#312=VERTEX_POINT('',#375);
#313=CIRCLE('',#376,8.682234375);
#314=VERTEX_POINT('',#377);
#315=LINE('',#378,#379);
#316=CIRCLE('',#380,7.333734375);
#317=VERTEX_POINT('',#381);
#318=LINE('',#382,#383);
#319=VERTEX_POINT('',#384);
#320=CIRCLE('',#385,8.422765625);
#321=LINE('',#386,#387);
#322=VERTEX_POINT('',#388);
#323=LINE('',#389,#390);
#324=VERTEX_POINT('',#391);
#325=CIRCLE('',#392,7.032125);
#326=LINE('',#393,#394);
#327=VERTEX_POINT('',#395);
#328=VERTEX_POINT('',#396);
#329=LINE('',#397,#398);
#330=VERTEX_POINT('',#399);
#331=CIRCLE('',#400,4.7355);
#332=VERTEX_POINT('',#401);
#333=LINE('',#402,#403);
#334=CIRCLE('',#404,4.7355);
#335=CIRCLE('',#405,4.7355);
#336=CIRCLE('',#406,4.7355);
#337=VERTEX_POINT('',#407);
#338=VERTEX_POINT('',#408);
#339=LINE('',#409,#410);
#340=VERTEX_POINT('',#411);
#341=LINE('',#412,#413);
#342=VERTEX_POINT('',#414);
#343=LINE('',#415,#416);
#344=VERTEX_POINT('',#417);
#345=LINE('',#418,#419);
#346=VERTEX_POINT('',#420);
#347=LINE('',#421,#422);
#348=LINE('',#423,#424);
#349=VERTEX_POINT('',#425);
#350=LINE('',#426,#427);
#351=VERTEX_POINT('',#428);
#352=LINE('',#429,#430);
#353=LINE('',#431,#432);
#354=VERTEX_POINT('',#433);
#355=LINE('',#434,#435);
#356=LINE('',#436,#437);
#357=VERTEX_POINT('',#438);
#358=LINE('',#439,#440);
#359=LINE('',#441,#442);
#360=VERTEX_POINT('',#443);
#361=LINE('',#444,#445);
#362=LINE('',#446,#447);
#363=VERTEX_POINT('',#448);
#364=LINE('',#449,#450);
#365=LINE('',#451,#452);
#366=LINE('',#453,#454);
#367=CIRCLE('',#455,8.422765625);
#368=CIRCLE('',#456,7.032125);
#369=CIRCLE('',#457,8.682234375);
#370=CIRCLE('',#458,7.333734375);
#371=CARTESIAN_POINT('',(8.682234375,-1.3485,0.0));
#372=CARTESIAN_POINT('',(7.333734375,-1.77635683940025E-015,0.0));
#373=CARTESIAN_POINT('',(8.007984375,-0.674250000000001,9.80662854693532E-016));
#374=VECTOR('',#459,1.0);
#375=CARTESIAN_POINT('',(-8.682234375,-1.3485,-1.06323193810001E-015));
#376=AXIS2_PLACEMENT_3D('',#460,#461,#462);
#377=CARTESIAN_POINT('',(-7.333734375,-1.77635683940025E-015,-8.98093771287058E-016));
#378=CARTESIAN_POINT('',(-8.007984375,-0.674250000000001,-9.80662854693532E-016));
#379=VECTOR('',#463,1.0);
#380=AXIS2_PLACEMENT_3D('',#464,#465,#466);
#381=CARTESIAN_POINT('',(8.422765625,-9.6515,0.0));
#382=CARTESIAN_POINT('',(8.5525,-5.5,1.04734458410659E-015));
#383=VECTOR('',#467,1.0);
#384=CARTESIAN_POINT('',(-8.422765625,-9.6515,-1.03145723011317E-015));
#385=AXIS2_PLACEMENT_3D('',#468,#469,#470);
#386=CARTESIAN_POINT('',(-8.5525,-5.5,-1.04734458410659E-015));
#387=VECTOR('',#471,1.0);
#388=CARTESIAN_POINT('',(7.032125,-11.0,0.0));
#389=CARTESIAN_POINT('',(7.7274453125,-10.32575,9.46307862850245E-016));
#390=VECTOR('',#472,1.0);
#391=CARTESIAN_POINT('',(-7.032125,-11.0,-8.61158495587319E-016));
#392=AXIS2_PLACEMENT_3D('',#473,#474,#475);
#393=CARTESIAN_POINT('',(-7.7274453125,-10.32575,-9.46307862850245E-016));
#394=VECTOR('',#476,1.0);
#395=CARTESIAN_POINT('',(4.7355,-6.0,0.0));
#396=CARTESIAN_POINT('',(4.7355,-8.0,0.0));
#397=CARTESIAN_POINT('',(4.7355,-7.0,5.79912338852587E-016));
#398=VECTOR('',#477,1.0);
#399=CARTESIAN_POINT('',(-4.7355,-6.0,-5.79912338852587E-016));
#400=AXIS2_PLACEMENT_3D('',#478,#479,#480);
#401=CARTESIAN_POINT('',(-4.7355,-8.0,-5.79912338852587E-016));
#402=CARTESIAN_POINT('',(-4.7355,-7.0,-5.79912338852587E-016));
#403=VECTOR('',#481,1.0);
#404=AXIS2_PLACEMENT_3D('',#482,#483,#484);
#405=AXIS2_PLACEMENT_3D('',#485,#486,#487);
#406=AXIS2_PLACEMENT_3D('',#488,#489,#490);
#407=CARTESIAN_POINT('',(2.3094010767585,-6.0,-4.0));
#408=CARTESIAN_POINT('',(4.61880215351701,-6.0,-8.48441510084516E-016));
#409=CARTESIAN_POINT('',(3.46410161513775,-6.0,-2.0));
#410=VECTOR('',#491,1.0);
#411=CARTESIAN_POINT('',(-2.3094010767585,-6.0,-4.0));
#412=CARTESIAN_POINT('',(-4.44089209850063E-016,-6.0,-4.0));
#413=VECTOR('',#492,1.0);
#414=CARTESIAN_POINT('',(-4.61880215351701,-6.0,2.82820063659975E-016));
#415=CARTESIAN_POINT('',(-3.46410161513775,-6.0,-2.0));
#416=VECTOR('',#493,1.0);
#417=CARTESIAN_POINT('',(-2.3094010767585,-6.0,4.0));
#418=CARTESIAN_POINT('',(-3.46410161513775,-6.0,2.0));
#419=VECTOR('',#494,1.0);
#420=CARTESIAN_POINT('',(2.30940107675851,-6.0,4.0));
#421=CARTESIAN_POINT('',(1.27277095697684E-015,-6.0,4.0));
#422=VECTOR('',#495,1.0);
#423=CARTESIAN_POINT('',(3.46410161513776,-6.0,2.0));
#424=VECTOR('',#496,1.0);
#425=CARTESIAN_POINT('',(-4.61880215351701,1.99840144432528E-015,2.82820063659975E-016));
#426=CARTESIAN_POINT('',(-4.61880215351701,1.0,2.82820063659975E-016));
#427=VECTOR('',#497,1.0);
#428=CARTESIAN_POINT('',(-2.3094010767585,1.4432899320127E-015,4.0));
#429=CARTESIAN_POINT('',(-3.00574321670025,1.55431223447522E-015,2.79390003416965));
#430=VECTOR('',#498,1.0);
#431=CARTESIAN_POINT('',(-2.3094010767585,1.0,4.0));
#432=VECTOR('',#499,1.0);
#433=CARTESIAN_POINT('',(-2.3094010767585,1.4432899320127E-015,-4.0));
#434=CARTESIAN_POINT('',(-2.3094010767585,1.0,-4.0));
#435=VECTOR('',#500,1.0);
#436=CARTESIAN_POINT('',(-3.00574321670025,1.60982338570648E-015,-2.79390003416965));
#437=VECTOR('',#501,1.0);
#438=CARTESIAN_POINT('',(2.3094010767585,3.33066907387547E-016,-4.0));
#439=CARTESIAN_POINT('',(2.3094010767585,1.0,-4.0));
#440=VECTOR('',#502,1.0);
#441=CARTESIAN_POINT('',(1.83343359375,4.44089209850063E-016,-4.0));
#442=VECTOR('',#503,1.0);
#443=CARTESIAN_POINT('',(4.61880215351701,-2.22044604925031E-016,-8.48441510084516E-016));
#444=CARTESIAN_POINT('',(4.61880215351701,1.0,-8.48441510084516E-016));
#445=VECTOR('',#504,1.0);
#446=CARTESIAN_POINT('',(3.92246001357525,-1.11022302462516E-016,-1.20609996583035));
#447=VECTOR('',#505,1.0);
#448=CARTESIAN_POINT('',(2.30940107675851,3.33066907387547E-016,4.0));
#449=CARTESIAN_POINT('',(2.30940107675851,1.0,4.0));
#450=VECTOR('',#506,1.0);
#451=CARTESIAN_POINT('',(3.92246001357525,-2.22044604925031E-016,1.20609996583035));
#452=VECTOR('',#507,1.0);
#453=CARTESIAN_POINT('',(1.83343359375,4.44089209850063E-016,4.0));
#454=VECTOR('',#508,1.0);
#455=AXIS2_PLACEMENT_3D('',#509,#510,#511);
#456=AXIS2_PLACEMENT_3D('',#512,#513,#514);
#457=AXIS2_PLACEMENT_3D('',#515,#516,#517);
#458=AXIS2_PLACEMENT_3D('',#518,#519,#520);
#459=DIRECTION('',(-0.707106781186547,0.707106781186548,-8.65927457071935E-017));
#460=CARTESIAN_POINT('',(0.0,-1.3485,0.0));
#461=DIRECTION('',(-0.0,1.0,0.0));
#462=DIRECTION('',(1.0,0.0,0.0));
#463=DIRECTION('',(-0.707106781186547,-0.707106781186548,-8.65927457071935E-017));
#464=CARTESIAN_POINT('',(0.0,-1.77635683940025E-015,0.0));
#465=DIRECTION('',(-0.0,1.0,0.0));
#466=DIRECTION('',(1.0,0.0,0.0));
#467=DIRECTION('',(0.031234752377721,0.999512076087079,3.82502762218257E-018));
#468=CARTESIAN_POINT('',(0.0,-9.6515,0.0));
#469=DIRECTION('',(-0.0,1.0,0.0));
#470=DIRECTION('',(1.0,0.0,0.0));
#471=DIRECTION('',(0.031234752377721,-0.999512076087079,3.82502762218257E-018));
#472=DIRECTION('',(0.717900393451055,0.69614583607375,8.79145383231746E-017));
#473=CARTESIAN_POINT('',(0.0,-11.0,0.0));
#474=DIRECTION('',(-0.0,1.0,0.0));
#475=DIRECTION('',(1.0,0.0,0.0));
#476=DIRECTION('',(0.717900393451055,-0.69614583607375,8.79145383231746E-017));
#477=DIRECTION('',(-0.0,-1.0,-0.0));
#478=CARTESIAN_POINT('',(0.0,-6.0,0.0));
#479=DIRECTION('',(-0.0,1.0,0.0));
#480=DIRECTION('',(1.0,0.0,0.0));
#481=DIRECTION('',(-0.0,1.0,-0.0));
#482=CARTESIAN_POINT('',(0.0,-8.0,0.0));
#483=DIRECTION('',(0.0,-1.0,0.0));
#484=DIRECTION('',(1.0,0.0,0.0));
#485=CARTESIAN_POINT('',(0.0,-8.0,0.0));
#486=DIRECTION('',(0.0,-1.0,0.0));
#487=DIRECTION('',(1.0,0.0,0.0));
#488=CARTESIAN_POINT('',(0.0,-6.0,0.0));
#489=DIRECTION('',(-0.0,1.0,0.0));
#490=DIRECTION('',(1.0,0.0,0.0));
#491=DIRECTION('',(0.5,-0.0,0.866025403784438));
#492=DIRECTION('',(1.0,-0.0,0.0));
#493=DIRECTION('',(0.5,0.0,-0.866025403784439));
#494=DIRECTION('',(-0.5,0.0,-0.866025403784439));
#495=DIRECTION('',(-1.0,0.0,1.92296268638356E-016));
#496=DIRECTION('',(-0.5,0.0,0.866025403784439));
#497=DIRECTION('',(0.0,-1.0,0.0));
#498=DIRECTION('',(-0.5,1.21108615922584E-016,-0.866025403784439));
#499=DIRECTION('',(0.0,-1.0,0.0));
#500=DIRECTION('',(0.0,-1.0,0.0));
#501=DIRECTION('',(0.5,-1.21108615922584E-016,-0.866025403784439));
#502=DIRECTION('',(0.0,-1.0,0.0));
#503=DIRECTION('',(1.0,-2.42217231845168E-016,0.0));
#504=DIRECTION('',(0.0,-1.0,0.0));
#505=DIRECTION('',(0.5,-1.21108615922584E-016,0.866025403784438));
#506=DIRECTION('',(0.0,-1.0,0.0));
#507=DIRECTION('',(-0.5,1.21108615922584E-016,0.866025403784439));
#508=DIRECTION('',(-1.0,2.42217231845168E-016,1.92296268638356E-016));
#509=CARTESIAN_POINT('',(0.0,-9.6515,0.0));
#510=DIRECTION('',(-0.0,1.0,0.0));
#511=DIRECTION('',(1.0,0.0,0.0));
#512=CARTESIAN_POINT('',(0.0,-11.0,0.0));
#513=DIRECTION('',(-0.0,1.0,0.0));
#514=DIRECTION('',(1.0,0.0,0.0));
#515=CARTESIAN_POINT('',(0.0,-1.3485,0.0));
#516=DIRECTION('',(-0.0,1.0,0.0));
#517=DIRECTION('',(1.0,0.0,0.0));
#518=CARTESIAN_POINT('',(0.0,-1.77635683940025E-015,0.0));
#519=DIRECTION('',(-0.0,1.0,0.0));
#520=DIRECTION('',(1.0,0.0,0.0));
ENDSEC;
END-ISO-10303-21;
