ISO-10303-21;
HEADER;
FILE_DESCRIPTION(('STEP AP214'),'1');
FILE_NAME('C:/PartsXMLTools/RobotParts/Generated/STEP_SAT/CAD/Temp/0127_05_03.stp','2016-07-07T14:22:32',('TraceParts'),('TraceParts S.A.'),'Spatial InterOp 3D',' ',' ');
FILE_SCHEMA(('automotive_design'));
ENDSEC;
DATA;
#1=PRODUCT_DEFINITION_CONTEXT('',#9,'design');
#2=APPLICATION_PROTOCOL_DEFINITION('INTERNATIONAL STANDARD','automotive_design',1994,#9);
#3=PRODUCT_CATEGORY_RELATIONSHIP('NONE','NONE',#10,#11);
#4=SHAPE_DEFINITION_REPRESENTATION(#12,#13);
#5= (GEOMETRIC_REPRESENTATION_CONTEXT(3)GLOBAL_UNCERTAINTY_ASSIGNED_CONTEXT((#16))GLOBAL_UNIT_ASSIGNED_CONTEXT((#18,#19,#20))REPRESENTATION_CONTEXT('NONE','WORKSPACE'));
#9=APPLICATION_CONTEXT(' ');
#10=PRODUCT_CATEGORY('part','NONE');
#11=PRODUCT_RELATED_PRODUCT_CATEGORY('detail',' ',(#22));
#12=PRODUCT_DEFINITION_SHAPE('NONE','NONE',#23);
#13=ADVANCED_BREP_SHAPE_REPRESENTATION('0127-05-03',(#24,#25),#5);
#16=UNCERTAINTY_MEASURE_WITH_UNIT(LENGTH_MEASURE(1.0E-006),#18,'','');
#18= (CONVERSION_BASED_UNIT('MILLIMETRE',#28)LENGTH_UNIT()NAMED_UNIT(#31));
#19= (NAMED_UNIT(#33)PLANE_ANGLE_UNIT()SI_UNIT($,.RADIAN.));
#20= (NAMED_UNIT(#33)SOLID_ANGLE_UNIT()SI_UNIT($,.STERADIAN.));
#22=PRODUCT('0127-05-03','0127-05-03','PART-0127-05-03-DESC',(#39));
#23=PRODUCT_DEFINITION('NONE','NONE',#40,#1);
#24=MANIFOLD_SOLID_BREP('0127-05-03',#41);
#25=AXIS2_PLACEMENT_3D('',#42,#43,#44);
#28=LENGTH_MEASURE_WITH_UNIT(LENGTH_MEASURE(1.0),#45);
#31=DIMENSIONAL_EXPONENTS(1.0,0.0,0.0,0.0,0.0,0.0,0.0);
#33=DIMENSIONAL_EXPONENTS(0.0,0.0,0.0,0.0,0.0,0.0,0.0);
#39=PRODUCT_CONTEXT('',#9,'mechanical');
#40=PRODUCT_DEFINITION_FORMATION_WITH_SPECIFIED_SOURCE(' ','NONE',#22,.NOT_KNOWN.);
#41=CLOSED_SHELL('',(#46,#47,#48,#49,#50,#51,#52,#53,#54,#55,#56,#57,#58,#59,#60,#61,#62,#63,#64,#65,#66,#67));
#42=CARTESIAN_POINT('',(0.0,0.0,0.0));
#43=DIRECTION('',(0.0,0.0,1.0));
#44=DIRECTION('',(1.0,0.0,0.0));
#45= (NAMED_UNIT(#31)LENGTH_UNIT()SI_UNIT(.MILLI.,.METRE.));
#46=ADVANCED_FACE('',(#69),#70,.T.);
#47=ADVANCED_FACE('',(#71),#72,.T.);
#48=ADVANCED_FACE('',(#73),#74,.T.);
#49=ADVANCED_FACE('',(#75),#76,.T.);
#50=ADVANCED_FACE('',(#77),#78,.T.);
#51=ADVANCED_FACE('',(#79),#80,.T.);
#52=ADVANCED_FACE('',(#81),#82,.T.);
#53=ADVANCED_FACE('',(#83),#84,.T.);
#54=ADVANCED_FACE('',(#85),#86,.T.);
#55=ADVANCED_FACE('',(#87),#88,.T.);
#56=ADVANCED_FACE('',(#89),#90,.T.);
#57=ADVANCED_FACE('',(#91),#92,.T.);
#58=ADVANCED_FACE('',(#93),#94,.F.);
#59=ADVANCED_FACE('',(#95),#96,.F.);
#60=ADVANCED_FACE('',(#97,#98),#99,.F.);
#61=ADVANCED_FACE('',(#100),#101,.T.);
#62=ADVANCED_FACE('',(#102),#103,.T.);
#63=ADVANCED_FACE('',(#104,#105),#106,.T.);
#64=ADVANCED_FACE('',(#107),#108,.T.);
#65=ADVANCED_FACE('',(#109),#110,.T.);
#66=ADVANCED_FACE('',(#111),#112,.F.);
#67=ADVANCED_FACE('',(#113),#114,.F.);
#69=FACE_OUTER_BOUND('',#115,.T.);
#70=TOROIDAL_SURFACE('',#116,2.15,0.1);
#71=FACE_OUTER_BOUND('',#117,.T.);
#72=TOROIDAL_SURFACE('',#118,2.15,0.1);
#73=FACE_OUTER_BOUND('',#119,.T.);
#74=TOROIDAL_SURFACE('',#120,2.15,0.1);
#75=FACE_OUTER_BOUND('',#121,.T.);
#76=TOROIDAL_SURFACE('',#122,2.15,0.1);
#77=FACE_OUTER_BOUND('',#123,.T.);
#78=TOROIDAL_SURFACE('',#124,2.15,0.1);
#79=FACE_OUTER_BOUND('',#125,.T.);
#80=TOROIDAL_SURFACE('',#126,2.15,0.1);
#81=FACE_OUTER_BOUND('',#127,.T.);
#82=TOROIDAL_SURFACE('',#128,1.2,0.2);
#83=FACE_OUTER_BOUND('',#129,.T.);
#84=TOROIDAL_SURFACE('',#130,1.2,0.2);
#85=FACE_OUTER_BOUND('',#131,.T.);
#86=CYLINDRICAL_SURFACE('',#132,1.4);
#87=FACE_OUTER_BOUND('',#133,.T.);
#88=TOROIDAL_SURFACE('',#134,1.2,0.2);
#89=FACE_OUTER_BOUND('',#135,.T.);
#90=TOROIDAL_SURFACE('',#136,1.2,0.2);
#91=FACE_OUTER_BOUND('',#137,.T.);
#92=CYLINDRICAL_SURFACE('',#138,1.4);
#93=FACE_OUTER_BOUND('',#139,.T.);
#94=TOROIDAL_SURFACE('',#140,1.7,0.3);
#95=FACE_OUTER_BOUND('',#141,.T.);
#96=TOROIDAL_SURFACE('',#142,1.7,0.3);
#97=FACE_OUTER_BOUND('',#143,.T.);
#98=FACE_BOUND('',#144,.T.);
#99=PLANE('',#145);
#100=FACE_OUTER_BOUND('',#146,.T.);
#101=TOROIDAL_SURFACE('',#147,2.15,0.1);
#102=FACE_OUTER_BOUND('',#148,.T.);
#103=TOROIDAL_SURFACE('',#149,2.15,0.1);
#104=FACE_OUTER_BOUND('',#150,.T.);
#105=FACE_BOUND('',#151,.T.);
#106=PLANE('',#152);
#107=FACE_OUTER_BOUND('',#153,.T.);
#108=TOROIDAL_SURFACE('',#154,1.7,0.5);
#109=FACE_OUTER_BOUND('',#155,.T.);
#110=TOROIDAL_SURFACE('',#156,1.7,0.5);
#111=FACE_OUTER_BOUND('',#157,.T.);
#112=CYLINDRICAL_SURFACE('',#158,1.2);
#113=FACE_OUTER_BOUND('',#159,.T.);
#114=CYLINDRICAL_SURFACE('',#160,1.2);
#115=EDGE_LOOP('',(#161,#162,#163,#164));
#116=AXIS2_PLACEMENT_3D('',#165,#166,#167);
#117=EDGE_LOOP('',(#168,#169,#170,#171));
#118=AXIS2_PLACEMENT_3D('',#172,#173,#174);
#119=EDGE_LOOP('',(#175,#176,#177,#178));
#120=AXIS2_PLACEMENT_3D('',#179,#180,#181);
#121=EDGE_LOOP('',(#182,#183,#184,#185));
#122=AXIS2_PLACEMENT_3D('',#186,#187,#188);
#123=EDGE_LOOP('',(#189,#190,#191,#192));
#124=AXIS2_PLACEMENT_3D('',#193,#194,#195);
#125=EDGE_LOOP('',(#196,#197,#198,#199));
#126=AXIS2_PLACEMENT_3D('',#200,#201,#202);
#127=EDGE_LOOP('',(#203,#204,#205,#206));
#128=AXIS2_PLACEMENT_3D('',#207,#208,#209);
#129=EDGE_LOOP('',(#210,#211,#212,#213));
#130=AXIS2_PLACEMENT_3D('',#214,#215,#216);
#131=EDGE_LOOP('',(#217,#218,#219,#220,#221));
#132=AXIS2_PLACEMENT_3D('',#222,#223,#224);
#133=EDGE_LOOP('',(#225,#226,#227,#228));
#134=AXIS2_PLACEMENT_3D('',#229,#230,#231);
#135=EDGE_LOOP('',(#232,#233,#234,#235));
#136=AXIS2_PLACEMENT_3D('',#236,#237,#238);
#137=EDGE_LOOP('',(#239,#240,#241,#242,#243));
#138=AXIS2_PLACEMENT_3D('',#244,#245,#246);
#139=EDGE_LOOP('',(#247,#248,#249,#250));
#140=AXIS2_PLACEMENT_3D('',#251,#252,#253);
#141=EDGE_LOOP('',(#254,#255,#256,#257));
#142=AXIS2_PLACEMENT_3D('',#258,#259,#260);
#143=EDGE_LOOP('',(#261,#262,#263,#264));
#144=EDGE_LOOP('',(#265,#266));
#145=AXIS2_PLACEMENT_3D('',#267,#268,#269);
#146=EDGE_LOOP('',(#270,#271,#272,#273));
#147=AXIS2_PLACEMENT_3D('',#274,#275,#276);
#148=EDGE_LOOP('',(#277,#278,#279,#280));
#149=AXIS2_PLACEMENT_3D('',#281,#282,#283);
#150=EDGE_LOOP('',(#284,#285,#286,#287));
#151=EDGE_LOOP('',(#288,#289));
#152=AXIS2_PLACEMENT_3D('',#290,#291,#292);
#153=EDGE_LOOP('',(#293,#294,#295,#296));
#154=AXIS2_PLACEMENT_3D('',#297,#298,#299);
#155=EDGE_LOOP('',(#300,#301,#302,#303));
#156=AXIS2_PLACEMENT_3D('',#304,#305,#306);
#157=EDGE_LOOP('',(#307,#308,#309,#310,#311));
#158=AXIS2_PLACEMENT_3D('',#312,#313,#314);
#159=EDGE_LOOP('',(#315,#316,#317,#318,#319));
#160=AXIS2_PLACEMENT_3D('',#320,#321,#322);
#161=ORIENTED_EDGE('',*,*,#323,.F.);
#162=ORIENTED_EDGE('',*,*,#324,.T.);
#163=ORIENTED_EDGE('',*,*,#325,.T.);
#164=ORIENTED_EDGE('',*,*,#326,.T.);
#165=CARTESIAN_POINT('',(-11.4,0.0,0.0));
#166=DIRECTION('',(-1.0,0.0,0.0));
#167=DIRECTION('',(0.0,0.999955666605839,0.00941620002291537));
#168=ORIENTED_EDGE('',*,*,#327,.F.);
#169=ORIENTED_EDGE('',*,*,#328,.T.);
#170=ORIENTED_EDGE('',*,*,#329,.T.);
#171=ORIENTED_EDGE('',*,*,#330,.F.);
#172=CARTESIAN_POINT('',(-11.4,0.0,0.0));
#173=DIRECTION('',(-1.0,-0.0,0.0));
#174=DIRECTION('',(0.0,-0.999955666605839,-0.00941620002291537));
#175=ORIENTED_EDGE('',*,*,#331,.F.);
#176=ORIENTED_EDGE('',*,*,#326,.F.);
#177=ORIENTED_EDGE('',*,*,#332,.T.);
#178=ORIENTED_EDGE('',*,*,#328,.F.);
#179=CARTESIAN_POINT('',(-11.4,0.0,0.0));
#180=DIRECTION('',(-1.0,-0.0,0.0));
#181=DIRECTION('',(0.0,-0.999955666605839,-0.00941620002291537));
#182=ORIENTED_EDGE('',*,*,#333,.F.);
#183=ORIENTED_EDGE('',*,*,#330,.T.);
#184=ORIENTED_EDGE('',*,*,#334,.T.);
#185=ORIENTED_EDGE('',*,*,#324,.F.);
#186=CARTESIAN_POINT('',(-11.4,0.0,0.0));
#187=DIRECTION('',(-1.0,0.0,0.0));
#188=DIRECTION('',(0.0,0.999955666605839,0.00941620002291537));
#189=ORIENTED_EDGE('',*,*,#333,.T.);
#190=ORIENTED_EDGE('',*,*,#335,.F.);
#191=ORIENTED_EDGE('',*,*,#336,.F.);
#192=ORIENTED_EDGE('',*,*,#337,.T.);
#193=CARTESIAN_POINT('',(-11.4,0.0,0.0));
#194=DIRECTION('',(-1.0,0.0,0.0));
#195=DIRECTION('',(0.0,0.999955666605839,0.00941620002291537));
#196=ORIENTED_EDGE('',*,*,#331,.T.);
#197=ORIENTED_EDGE('',*,*,#338,.F.);
#198=ORIENTED_EDGE('',*,*,#339,.F.);
#199=ORIENTED_EDGE('',*,*,#340,.F.);
#200=CARTESIAN_POINT('',(-11.4,0.0,0.0));
#201=DIRECTION('',(-1.0,-0.0,0.0));
#202=DIRECTION('',(0.0,-0.999955666605839,-0.00941620002291537));
#203=ORIENTED_EDGE('',*,*,#341,.F.);
#204=ORIENTED_EDGE('',*,*,#342,.F.);
#205=ORIENTED_EDGE('',*,*,#343,.T.);
#206=ORIENTED_EDGE('',*,*,#344,.T.);
#207=CARTESIAN_POINT('',(-0.2,0.0,0.0));
#208=DIRECTION('',(-1.0,-0.0,0.0));
#209=DIRECTION('',(0.0,-0.999885492253615,-0.0151328246122702));
#210=ORIENTED_EDGE('',*,*,#345,.F.);
#211=ORIENTED_EDGE('',*,*,#346,.F.);
#212=ORIENTED_EDGE('',*,*,#347,.T.);
#213=ORIENTED_EDGE('',*,*,#348,.T.);
#214=CARTESIAN_POINT('',(-0.2,0.0,0.0));
#215=DIRECTION('',(-1.0,0.0,0.0));
#216=DIRECTION('',(0.0,0.999885492253615,0.0151328246122702));
#217=ORIENTED_EDGE('',*,*,#349,.T.);
#218=ORIENTED_EDGE('',*,*,#350,.F.);
#219=ORIENTED_EDGE('',*,*,#351,.F.);
#220=ORIENTED_EDGE('',*,*,#346,.T.);
#221=ORIENTED_EDGE('',*,*,#352,.T.);
#222=CARTESIAN_POINT('',(0.575,0.0,0.0));
#223=DIRECTION('',(1.0,-0.0,0.0));
#224=DIRECTION('',(0.0,1.0,0.0));
#225=ORIENTED_EDGE('',*,*,#345,.T.);
#226=ORIENTED_EDGE('',*,*,#353,.T.);
#227=ORIENTED_EDGE('',*,*,#343,.F.);
#228=ORIENTED_EDGE('',*,*,#352,.F.);
#229=CARTESIAN_POINT('',(-0.2,0.0,0.0));
#230=DIRECTION('',(-1.0,0.0,0.0));
#231=DIRECTION('',(0.0,0.999885492253615,0.0151328246122702));
#232=ORIENTED_EDGE('',*,*,#341,.T.);
#233=ORIENTED_EDGE('',*,*,#354,.T.);
#234=ORIENTED_EDGE('',*,*,#347,.F.);
#235=ORIENTED_EDGE('',*,*,#355,.F.);
#236=CARTESIAN_POINT('',(-0.2,0.0,0.0));
#237=DIRECTION('',(-1.0,-0.0,0.0));
#238=DIRECTION('',(0.0,-0.999885492253615,-0.0151328246122702));
#239=ORIENTED_EDGE('',*,*,#351,.T.);
#240=ORIENTED_EDGE('',*,*,#356,.T.);
#241=ORIENTED_EDGE('',*,*,#349,.F.);
#242=ORIENTED_EDGE('',*,*,#342,.T.);
#243=ORIENTED_EDGE('',*,*,#355,.T.);
#244=CARTESIAN_POINT('',(0.575,0.0,0.0));
#245=DIRECTION('',(1.0,-0.0,0.0));
#246=DIRECTION('',(0.0,1.0,0.0));
#247=ORIENTED_EDGE('',*,*,#357,.T.);
#248=ORIENTED_EDGE('',*,*,#358,.F.);
#249=ORIENTED_EDGE('',*,*,#356,.F.);
#250=ORIENTED_EDGE('',*,*,#359,.T.);
#251=CARTESIAN_POINT('',(-11.0,0.0,0.0));
#252=DIRECTION('',(-1.0,0.0,0.0));
#253=DIRECTION('',(0.0,1.0,0.0));
#254=ORIENTED_EDGE('',*,*,#350,.T.);
#255=ORIENTED_EDGE('',*,*,#358,.T.);
#256=ORIENTED_EDGE('',*,*,#360,.F.);
#257=ORIENTED_EDGE('',*,*,#359,.F.);
#258=CARTESIAN_POINT('',(-11.0,0.0,0.0));
#259=DIRECTION('',(-1.0,0.0,0.0));
#260=DIRECTION('',(0.0,1.0,0.0));
#261=ORIENTED_EDGE('',*,*,#334,.F.);
#262=ORIENTED_EDGE('',*,*,#329,.F.);
#263=ORIENTED_EDGE('',*,*,#332,.F.);
#264=ORIENTED_EDGE('',*,*,#325,.F.);
#265=ORIENTED_EDGE('',*,*,#357,.F.);
#266=ORIENTED_EDGE('',*,*,#360,.T.);
#267=CARTESIAN_POINT('',(-11.3,0.0,0.0));
#268=DIRECTION('',(-1.0,0.0,0.0));
#269=DIRECTION('',(0.0,0.0,1.0));
#270=ORIENTED_EDGE('',*,*,#327,.T.);
#271=ORIENTED_EDGE('',*,*,#337,.F.);
#272=ORIENTED_EDGE('',*,*,#361,.F.);
#273=ORIENTED_EDGE('',*,*,#338,.T.);
#274=CARTESIAN_POINT('',(-11.4,0.0,0.0));
#275=DIRECTION('',(-1.0,-0.0,0.0));
#276=DIRECTION('',(0.0,-0.999955666605839,-0.00941620002291537));
#277=ORIENTED_EDGE('',*,*,#323,.T.);
#278=ORIENTED_EDGE('',*,*,#340,.T.);
#279=ORIENTED_EDGE('',*,*,#362,.F.);
#280=ORIENTED_EDGE('',*,*,#335,.T.);
#281=CARTESIAN_POINT('',(-11.4,0.0,0.0));
#282=DIRECTION('',(-1.0,0.0,0.0));
#283=DIRECTION('',(0.0,0.999955666605839,0.00941620002291537));
#284=ORIENTED_EDGE('',*,*,#339,.T.);
#285=ORIENTED_EDGE('',*,*,#361,.T.);
#286=ORIENTED_EDGE('',*,*,#336,.T.);
#287=ORIENTED_EDGE('',*,*,#362,.T.);
#288=ORIENTED_EDGE('',*,*,#363,.F.);
#289=ORIENTED_EDGE('',*,*,#364,.T.);
#290=CARTESIAN_POINT('',(-11.5,0.0,0.0));
#291=DIRECTION('',(-1.0,0.0,0.0));
#292=DIRECTION('',(0.0,0.0,1.0));
#293=ORIENTED_EDGE('',*,*,#365,.T.);
#294=ORIENTED_EDGE('',*,*,#366,.F.);
#295=ORIENTED_EDGE('',*,*,#364,.F.);
#296=ORIENTED_EDGE('',*,*,#367,.T.);
#297=CARTESIAN_POINT('',(-11.0,0.0,0.0));
#298=DIRECTION('',(-1.0,0.0,0.0));
#299=DIRECTION('',(0.0,1.0,0.0));
#300=ORIENTED_EDGE('',*,*,#363,.T.);
#301=ORIENTED_EDGE('',*,*,#366,.T.);
#302=ORIENTED_EDGE('',*,*,#368,.F.);
#303=ORIENTED_EDGE('',*,*,#367,.F.);
#304=CARTESIAN_POINT('',(-11.0,0.0,0.0));
#305=DIRECTION('',(-1.0,0.0,0.0));
#306=DIRECTION('',(0.0,1.0,0.0));
#307=ORIENTED_EDGE('',*,*,#369,.F.);
#308=ORIENTED_EDGE('',*,*,#368,.T.);
#309=ORIENTED_EDGE('',*,*,#370,.T.);
#310=ORIENTED_EDGE('',*,*,#353,.F.);
#311=ORIENTED_EDGE('',*,*,#348,.F.);
#312=CARTESIAN_POINT('',(0.575,0.0,0.0));
#313=DIRECTION('',(1.0,-0.0,0.0));
#314=DIRECTION('',(0.0,1.0,0.0));
#315=ORIENTED_EDGE('',*,*,#370,.F.);
#316=ORIENTED_EDGE('',*,*,#365,.F.);
#317=ORIENTED_EDGE('',*,*,#369,.T.);
#318=ORIENTED_EDGE('',*,*,#354,.F.);
#319=ORIENTED_EDGE('',*,*,#344,.F.);
#320=CARTESIAN_POINT('',(0.575,0.0,0.0));
#321=DIRECTION('',(1.0,-0.0,0.0));
#322=DIRECTION('',(0.0,1.0,0.0));
#323=EDGE_CURVE('',#371,#372,#373,.T.);
#324=EDGE_CURVE('',#371,#374,#375,.T.);
#325=EDGE_CURVE('',#374,#376,#377,.T.);
#326=EDGE_CURVE('',#376,#372,#378,.T.);
#327=EDGE_CURVE('',#379,#380,#381,.T.);
#328=EDGE_CURVE('',#379,#382,#383,.T.);
#329=EDGE_CURVE('',#382,#384,#385,.T.);
#330=EDGE_CURVE('',#380,#384,#386,.T.);
#331=EDGE_CURVE('',#372,#379,#387,.T.);
#332=EDGE_CURVE('',#376,#382,#388,.T.);
#333=EDGE_CURVE('',#380,#371,#389,.T.);
#334=EDGE_CURVE('',#384,#374,#390,.T.);
#335=EDGE_CURVE('',#391,#371,#392,.T.);
#336=EDGE_CURVE('',#393,#391,#394,.T.);
#337=EDGE_CURVE('',#393,#380,#395,.T.);
#338=EDGE_CURVE('',#396,#379,#397,.T.);
#339=EDGE_CURVE('',#398,#396,#399,.T.);
#340=EDGE_CURVE('',#372,#398,#400,.T.);
#341=EDGE_CURVE('',#401,#402,#403,.T.);
#342=EDGE_CURVE('',#404,#401,#405,.T.);
#343=EDGE_CURVE('',#404,#406,#407,.T.);
#344=EDGE_CURVE('',#406,#402,#408,.T.);
#345=EDGE_CURVE('',#409,#410,#411,.T.);
#346=EDGE_CURVE('',#412,#409,#413,.T.);
#347=EDGE_CURVE('',#412,#414,#415,.T.);
#348=EDGE_CURVE('',#414,#410,#416,.T.);
#349=EDGE_CURVE('',#404,#417,#418,.T.);
#350=EDGE_CURVE('',#419,#417,#420,.T.);
#351=EDGE_CURVE('',#412,#419,#421,.T.);
#352=EDGE_CURVE('',#409,#404,#422,.T.);
#353=EDGE_CURVE('',#410,#406,#423,.T.);
#354=EDGE_CURVE('',#402,#414,#424,.T.);
#355=EDGE_CURVE('',#401,#412,#425,.T.);
#356=EDGE_CURVE('',#419,#417,#426,.T.);
#357=EDGE_CURVE('',#427,#428,#429,.T.);
#358=EDGE_CURVE('',#417,#428,#430,.T.);
#359=EDGE_CURVE('',#419,#427,#431,.T.);
#360=EDGE_CURVE('',#427,#428,#432,.T.);
#361=EDGE_CURVE('',#396,#393,#433,.T.);
#362=EDGE_CURVE('',#391,#398,#434,.T.);
#363=EDGE_CURVE('',#435,#436,#437,.T.);
#364=EDGE_CURVE('',#435,#436,#438,.T.);
#365=EDGE_CURVE('',#439,#440,#441,.T.);
#366=EDGE_CURVE('',#436,#440,#442,.T.);
#367=EDGE_CURVE('',#435,#439,#443,.T.);
#368=EDGE_CURVE('',#439,#440,#444,.T.);
#369=EDGE_CURVE('',#439,#414,#445,.T.);
#370=EDGE_CURVE('',#440,#406,#446,.T.);
#371=VERTEX_POINT('',#447);
#372=VERTEX_POINT('',#448);
#373=CIRCLE('',#449,2.25);
#374=VERTEX_POINT('',#450);
#375=CIRCLE('',#451,0.1);
#376=VERTEX_POINT('',#452);
#377=CIRCLE('',#453,2.149999986263);
#378=CIRCLE('',#454,0.1);
#379=VERTEX_POINT('',#455);
#380=VERTEX_POINT('',#456);
#381=CIRCLE('',#457,2.25);
#382=VERTEX_POINT('',#458);
#383=CIRCLE('',#459,0.1);
#384=VERTEX_POINT('',#460);
#385=CIRCLE('',#461,2.149999986263);
#386=CIRCLE('',#462,0.1);
#387=CIRCLE('',#463,2.25);
#388=CIRCLE('',#464,2.149999986263);
#389=CIRCLE('',#465,2.25);
#390=CIRCLE('',#466,2.149999986263);
#391=VERTEX_POINT('',#467);
#392=CIRCLE('',#468,0.1);
#393=VERTEX_POINT('',#469);
#394=CIRCLE('',#470,2.149999976888);
#395=CIRCLE('',#471,0.1);
#396=VERTEX_POINT('',#472);
#397=CIRCLE('',#473,0.1);
#398=VERTEX_POINT('',#474);
#399=CIRCLE('',#475,2.149999976888);
#400=CIRCLE('',#476,0.1);
#401=VERTEX_POINT('',#477);
#402=VERTEX_POINT('',#478);
#403=CIRCLE('',#479,0.2);
#404=VERTEX_POINT('',#480);
#405=CIRCLE('',#481,1.4);
#406=VERTEX_POINT('',#482);
#407=CIRCLE('',#483,0.2);
#408=CIRCLE('',#484,1.2);
#409=VERTEX_POINT('',#485);
#410=VERTEX_POINT('',#486);
#411=CIRCLE('',#487,0.2);
#412=VERTEX_POINT('',#488);
#413=CIRCLE('',#489,1.4);
#414=VERTEX_POINT('',#490);
#415=CIRCLE('',#491,0.2);
#416=CIRCLE('',#492,1.2);
#417=VERTEX_POINT('',#493);
#418=LINE('',#494,#495);
#419=VERTEX_POINT('',#496);
#420=CIRCLE('',#497,1.4);
#421=LINE('',#498,#499);
#422=CIRCLE('',#500,1.4);
#423=CIRCLE('',#501,1.2);
#424=CIRCLE('',#502,1.2);
#425=CIRCLE('',#503,1.4);
#426=CIRCLE('',#504,1.4);
#427=VERTEX_POINT('',#505);
#428=VERTEX_POINT('',#506);
#429=CIRCLE('',#507,1.7);
#430=CIRCLE('',#508,0.3);
#431=CIRCLE('',#509,0.3);
#432=CIRCLE('',#510,1.7);
#433=CIRCLE('',#511,2.149999976888);
#434=CIRCLE('',#512,2.149999976888);
#435=VERTEX_POINT('',#513);
#436=VERTEX_POINT('',#514);
#437=CIRCLE('',#515,1.7);
#438=CIRCLE('',#516,1.7);
#439=VERTEX_POINT('',#517);
#440=VERTEX_POINT('',#518);
#441=CIRCLE('',#519,1.2);
#442=CIRCLE('',#520,0.5);
#443=CIRCLE('',#521,0.5);
#444=CIRCLE('',#522,1.2);
#445=LINE('',#523,#524);
#446=LINE('',#525,#526);
#447=CARTESIAN_POINT('',(-11.4,-2.24990024986314,-0.0211864500515599));
#448=CARTESIAN_POINT('',(-11.4,-2.25,0.0));
#449=AXIS2_PLACEMENT_3D('',#527,#528,#529);
#450=CARTESIAN_POINT('',(-11.3,-2.14990466946616,-0.020244829919918));
#451=AXIS2_PLACEMENT_3D('',#530,#531,#532);
#452=CARTESIAN_POINT('',(-11.3,-2.149999986263,0.0));
#453=AXIS2_PLACEMENT_3D('',#533,#534,#535);
#454=AXIS2_PLACEMENT_3D('',#536,#537,#538);
#455=CARTESIAN_POINT('',(-11.4,2.24990024986314,0.0211864500515599));
#456=CARTESIAN_POINT('',(-11.4,2.25,0.0));
#457=AXIS2_PLACEMENT_3D('',#539,#540,#541);
#458=CARTESIAN_POINT('',(-11.3,2.14990466946616,0.020244829919918));
#459=AXIS2_PLACEMENT_3D('',#542,#543,#544);
#460=CARTESIAN_POINT('',(-11.3,2.149999986263,0.0));
#461=AXIS2_PLACEMENT_3D('',#545,#546,#547);
#462=AXIS2_PLACEMENT_3D('',#548,#549,#550);
#463=AXIS2_PLACEMENT_3D('',#551,#552,#553);
#464=AXIS2_PLACEMENT_3D('',#554,#555,#556);
#465=AXIS2_PLACEMENT_3D('',#557,#558,#559);
#466=AXIS2_PLACEMENT_3D('',#560,#561,#562);
#467=CARTESIAN_POINT('',(-11.5,-2.14990466009158,-0.0202448298316411));
#468=AXIS2_PLACEMENT_3D('',#563,#564,#565);
#469=CARTESIAN_POINT('',(-11.5,2.149999976888,0.0));
#470=AXIS2_PLACEMENT_3D('',#566,#567,#568);
#471=AXIS2_PLACEMENT_3D('',#569,#570,#571);
#472=CARTESIAN_POINT('',(-11.5,2.14990466009158,0.0202448298316411));
#473=AXIS2_PLACEMENT_3D('',#572,#573,#574);
#474=CARTESIAN_POINT('',(-11.5,-2.149999976888,0.0));
#475=AXIS2_PLACEMENT_3D('',#575,#576,#577);
#476=AXIS2_PLACEMENT_3D('',#578,#579,#580);
#477=CARTESIAN_POINT('',(-0.2,1.39983968915506,0.0211859544571784));
#478=CARTESIAN_POINT('',(0.0,1.19986259070434,0.0181593895347244));
#479=AXIS2_PLACEMENT_3D('',#581,#582,#583);
#480=CARTESIAN_POINT('',(-0.2,-1.4,0.0));
#481=AXIS2_PLACEMENT_3D('',#584,#585,#586);
#482=CARTESIAN_POINT('',(0.0,-1.2,-6.072854074623E-012));
#483=AXIS2_PLACEMENT_3D('',#587,#588,#589);
#484=AXIS2_PLACEMENT_3D('',#590,#591,#592);
#485=CARTESIAN_POINT('',(-0.2,-1.39983968915506,-0.0211859544571784));
#486=CARTESIAN_POINT('',(0.0,-1.19986259070434,-0.0181593895347244));
#487=AXIS2_PLACEMENT_3D('',#593,#594,#595);
#488=CARTESIAN_POINT('',(-0.2,1.4,0.0));
#489=AXIS2_PLACEMENT_3D('',#596,#597,#598);
#490=CARTESIAN_POINT('',(0.0,1.2,6.072645948982E-012));
#491=AXIS2_PLACEMENT_3D('',#599,#600,#601);
#492=AXIS2_PLACEMENT_3D('',#602,#603,#604);
#493=CARTESIAN_POINT('',(-11.0,-1.4,0.0));
#494=CARTESIAN_POINT('',(-0.2,-1.4,-2.72829502046E-013));
#495=VECTOR('',#605,10.8);
#496=CARTESIAN_POINT('',(-11.0,1.4,0.0));
#497=AXIS2_PLACEMENT_3D('',#606,#607,#608);
#498=CARTESIAN_POINT('',(-0.2,1.4,2.728286346843E-013));
#499=VECTOR('',#609,10.8);
#500=AXIS2_PLACEMENT_3D('',#610,#611,#612);
#501=AXIS2_PLACEMENT_3D('',#613,#614,#615);
#502=AXIS2_PLACEMENT_3D('',#616,#617,#618);
#503=AXIS2_PLACEMENT_3D('',#619,#620,#621);
#504=AXIS2_PLACEMENT_3D('',#622,#623,#624);
#505=CARTESIAN_POINT('',(-11.3,1.7,0.0));
#506=CARTESIAN_POINT('',(-11.3,-1.7,0.0));
#507=AXIS2_PLACEMENT_3D('',#625,#626,#627);
#508=AXIS2_PLACEMENT_3D('',#628,#629,#630);
#509=AXIS2_PLACEMENT_3D('',#631,#632,#633);
#510=AXIS2_PLACEMENT_3D('',#634,#635,#636);
#511=AXIS2_PLACEMENT_3D('',#637,#638,#639);
#512=AXIS2_PLACEMENT_3D('',#640,#641,#642);
#513=CARTESIAN_POINT('',(-11.5,1.7,0.0));
#514=CARTESIAN_POINT('',(-11.5,-1.7,0.0));
#515=AXIS2_PLACEMENT_3D('',#643,#644,#645);
#516=AXIS2_PLACEMENT_3D('',#646,#647,#648);
#517=CARTESIAN_POINT('',(-11.0,1.2,0.0));
#518=CARTESIAN_POINT('',(-11.0,-1.2,0.0));
#519=AXIS2_PLACEMENT_3D('',#649,#650,#651);
#520=AXIS2_PLACEMENT_3D('',#652,#653,#654);
#521=AXIS2_PLACEMENT_3D('',#655,#656,#657);
#522=AXIS2_PLACEMENT_3D('',#658,#659,#660);
#523=CARTESIAN_POINT('',(-11.0,1.2,0.0));
#524=VECTOR('',#661,11.0);
#525=CARTESIAN_POINT('',(-11.0,-1.2,0.0));
#526=VECTOR('',#662,11.0);
#527=CARTESIAN_POINT('',(-11.4,0.0,0.0));
#528=DIRECTION('',(-1.0,0.0,0.0));
#529=DIRECTION('',(0.0,-0.0,1.0));
#530=CARTESIAN_POINT('',(-11.4,-2.14990468320255,-0.0202448300492683));
#531=DIRECTION('',(0.0,-0.00941620002291549,0.999955666605839));
#532=DIRECTION('',(0.0,-0.999955666605839,-0.00941620002291549));
#533=CARTESIAN_POINT('',(-11.3,0.0,0.0));
#534=DIRECTION('',(-1.0,0.0,0.0));
#535=DIRECTION('',(0.0,1.0,0.0));
#536=CARTESIAN_POINT('',(-11.4,-2.15,0.0));
#537=DIRECTION('',(0.0,0.0,-1.0));
#538=DIRECTION('',(1.0,0.0,0.0));
#539=CARTESIAN_POINT('',(-11.4,0.0,0.0));
#540=DIRECTION('',(-1.0,-0.0,0.0));
#541=DIRECTION('',(0.0,0.0,1.0));
#542=CARTESIAN_POINT('',(-11.4,2.14990468320255,0.0202448300492683));
#543=DIRECTION('',(-0.0,0.00941620002291549,-0.999955666605839));
#544=DIRECTION('',(0.0,0.999955666605839,0.00941620002291549));
#545=CARTESIAN_POINT('',(-11.3,0.0,0.0));
#546=DIRECTION('',(-1.0,0.0,0.0));
#547=DIRECTION('',(0.0,-1.0,0.0));
#548=CARTESIAN_POINT('',(-11.4,2.15,0.0));
#549=DIRECTION('',(0.0,0.0,-1.0));
#550=DIRECTION('',(-1.0,0.0,0.0));
#551=CARTESIAN_POINT('',(-11.4,0.0,0.0));
#552=DIRECTION('',(-1.0,-0.0,0.0));
#553=DIRECTION('',(0.0,0.0,1.0));
#554=CARTESIAN_POINT('',(-11.3,0.0,0.0));
#555=DIRECTION('',(-1.0,0.0,0.0));
#556=DIRECTION('',(0.0,-1.0,0.0));
#557=CARTESIAN_POINT('',(-11.4,0.0,0.0));
#558=DIRECTION('',(-1.0,0.0,0.0));
#559=DIRECTION('',(0.0,-0.0,1.0));
#560=CARTESIAN_POINT('',(-11.3,0.0,0.0));
#561=DIRECTION('',(-1.0,0.0,0.0));
#562=DIRECTION('',(0.0,1.0,0.0));
#563=CARTESIAN_POINT('',(-11.4,-2.14990468320255,-0.0202448300492683));
#564=DIRECTION('',(0.0,-0.00941620002291549,0.999955666605839));
#565=DIRECTION('',(0.0,-0.999955666605839,-0.00941620002291549));
#566=CARTESIAN_POINT('',(-11.5,0.0,0.0));
#567=DIRECTION('',(-1.0,0.0,0.0));
#568=DIRECTION('',(0.0,1.0,0.0));
#569=CARTESIAN_POINT('',(-11.4,2.15,0.0));
#570=DIRECTION('',(0.0,0.0,-1.0));
#571=DIRECTION('',(-1.0,0.0,0.0));
#572=CARTESIAN_POINT('',(-11.4,2.14990468320255,0.0202448300492683));
#573=DIRECTION('',(-0.0,0.00941620002291549,-0.999955666605839));
#574=DIRECTION('',(0.0,0.999955666605839,0.00941620002291549));
#575=CARTESIAN_POINT('',(-11.5,0.0,0.0));
#576=DIRECTION('',(-1.0,0.0,0.0));
#577=DIRECTION('',(0.0,-1.0,0.0));
#578=CARTESIAN_POINT('',(-11.4,-2.15,0.0));
#579=DIRECTION('',(0.0,0.0,-1.0));
#580=DIRECTION('',(1.0,0.0,0.0));
#581=CARTESIAN_POINT('',(-0.2,1.19986259070434,0.0181593895347244));
#582=DIRECTION('',(-0.0,0.0151328246122704,-0.999885492253615));
#583=DIRECTION('',(0.0,0.999885492253615,0.0151328246122704));
#584=CARTESIAN_POINT('',(-0.2,0.0,0.0));
#585=DIRECTION('',(-1.0,0.0,0.0));
#586=DIRECTION('',(0.0,-1.0,0.0));
#587=CARTESIAN_POINT('',(-0.2,-1.2,-6.072854025208E-012));
#588=DIRECTION('',(0.0,-5.060710531191E-012,1.0));
#589=DIRECTION('',(0.0,-1.0,-5.060710531191E-012));
#590=CARTESIAN_POINT('',(0.0,0.0,0.0));
#591=DIRECTION('',(-1.0,0.0,0.0));
#592=DIRECTION('',(0.0,-1.0,0.0));
#593=CARTESIAN_POINT('',(-0.2,-1.19986259070434,-0.0181593895347244));
#594=DIRECTION('',(0.0,-0.0151328246122704,0.999885492253615));
#595=DIRECTION('',(0.0,-0.999885492253615,-0.0151328246122704));
#596=CARTESIAN_POINT('',(-0.2,0.0,0.0));
#597=DIRECTION('',(-1.0,0.0,0.0));
#598=DIRECTION('',(0.0,1.0,0.0));
#599=CARTESIAN_POINT('',(-0.2,1.2,6.07264585839E-012));
#600=DIRECTION('',(0.0,5.06054052829E-012,-1.0));
#601=DIRECTION('',(0.0,1.0,5.06054052829E-012));
#602=CARTESIAN_POINT('',(0.0,0.0,0.0));
#603=DIRECTION('',(-1.0,0.0,0.0));
#604=DIRECTION('',(0.0,1.0,0.0));
#605=DIRECTION('',(-1.0,0.0,2.523320737029E-014));
#606=CARTESIAN_POINT('',(-11.0,0.0,0.0));
#607=DIRECTION('',(-1.0,0.0,0.0));
#608=DIRECTION('',(0.0,1.0,0.0));
#609=DIRECTION('',(-1.0,0.0,-2.526191061891E-014));
#610=CARTESIAN_POINT('',(-0.2,0.0,0.0));
#611=DIRECTION('',(-1.0,0.0,0.0));
#612=DIRECTION('',(0.0,1.0,0.0));
#613=CARTESIAN_POINT('',(0.0,0.0,0.0));
#614=DIRECTION('',(-1.0,0.0,0.0));
#615=DIRECTION('',(0.0,1.0,0.0));
#616=CARTESIAN_POINT('',(0.0,0.0,0.0));
#617=DIRECTION('',(-1.0,0.0,0.0));
#618=DIRECTION('',(0.0,-1.0,0.0));
#619=CARTESIAN_POINT('',(-0.2,0.0,0.0));
#620=DIRECTION('',(-1.0,0.0,0.0));
#621=DIRECTION('',(0.0,-1.0,0.0));
#622=CARTESIAN_POINT('',(-11.0,0.0,0.0));
#623=DIRECTION('',(1.0,0.0,0.0));
#624=DIRECTION('',(0.0,1.0,0.0));
#625=CARTESIAN_POINT('',(-11.3,0.0,0.0));
#626=DIRECTION('',(1.0,0.0,0.0));
#627=DIRECTION('',(0.0,1.0,0.0));
#628=CARTESIAN_POINT('',(-11.0,-1.7,0.0));
#629=DIRECTION('',(0.0,-0.0,1.0));
#630=DIRECTION('',(0.0,1.0,0.0));
#631=CARTESIAN_POINT('',(-11.0,1.7,0.0));
#632=DIRECTION('',(0.0,0.0,-1.0));
#633=DIRECTION('',(0.0,-1.0,0.0));
#634=CARTESIAN_POINT('',(-11.3,0.0,0.0));
#635=DIRECTION('',(-1.0,0.0,0.0));
#636=DIRECTION('',(0.0,1.0,0.0));
#637=CARTESIAN_POINT('',(-11.5,0.0,0.0));
#638=DIRECTION('',(-1.0,0.0,0.0));
#639=DIRECTION('',(0.0,-1.0,0.0));
#640=CARTESIAN_POINT('',(-11.5,0.0,0.0));
#641=DIRECTION('',(-1.0,0.0,0.0));
#642=DIRECTION('',(0.0,1.0,0.0));
#643=CARTESIAN_POINT('',(-11.5,0.0,0.0));
#644=DIRECTION('',(-1.0,0.0,0.0));
#645=DIRECTION('',(0.0,1.0,0.0));
#646=CARTESIAN_POINT('',(-11.5,0.0,0.0));
#647=DIRECTION('',(1.0,0.0,0.0));
#648=DIRECTION('',(0.0,1.0,0.0));
#649=CARTESIAN_POINT('',(-11.0,0.0,0.0));
#650=DIRECTION('',(1.0,0.0,0.0));
#651=DIRECTION('',(0.0,1.0,0.0));
#652=CARTESIAN_POINT('',(-11.0,-1.7,0.0));
#653=DIRECTION('',(0.0,0.0,-1.0));
#654=DIRECTION('',(-1.0,0.0,0.0));
#655=CARTESIAN_POINT('',(-11.0,1.7,0.0));
#656=DIRECTION('',(0.0,0.0,1.0));
#657=DIRECTION('',(-1.0,0.0,0.0));
#658=CARTESIAN_POINT('',(-11.0,0.0,0.0));
#659=DIRECTION('',(-1.0,0.0,0.0));
#660=DIRECTION('',(0.0,1.0,0.0));
#661=DIRECTION('',(1.0,0.0,0.0));
#662=DIRECTION('',(1.0,0.0,0.0));
ENDSEC;
END-ISO-10303-21;
