ISO-10303-21;
HEADER;
FILE_DESCRIPTION(('STEP AP214'),'1');
FILE_NAME('C:/PartsXMLTools/RobotParts/Generated/STEP_SAT/CAD/Temp/0127_05_00.stp','2016-07-07T14:22:29',('TraceParts'),('TraceParts S.A.'),'Spatial InterOp 3D',' ',' ');
FILE_SCHEMA(('automotive_design'));
ENDSEC;
DATA;
#1=PRODUCT_DEFINITION_CONTEXT('',#9,'design');
#2=APPLICATION_PROTOCOL_DEFINITION('INTERNATIONAL STANDARD','automotive_design',1994,#9);
#3=PRODUCT_CATEGORY_RELATIONSHIP('NONE','NONE',#10,#11);
#4=SHAPE_DEFINITION_REPRESENTATION(#12,#13);
#5= (GEOMETRIC_REPRESENTATION_CONTEXT(3)GLOBAL_UNCERTAINTY_ASSIGNED_CONTEXT((#16))GLOBAL_UNIT_ASSIGNED_CONTEXT((#18,#19,#20))REPRESENTATION_CONTEXT('NONE','WORKSPACE'));
#9=APPLICATION_CONTEXT(' ');
#10=PRODUCT_CATEGORY('part','NONE');
#11=PRODUCT_RELATED_PRODUCT_CATEGORY('detail',' ',(#22));
#12=PRODUCT_DEFINITION_SHAPE('NONE','NONE',#23);
#13=ADVANCED_BREP_SHAPE_REPRESENTATION('0127-05-00',(#24,#25),#5);
#16=UNCERTAINTY_MEASURE_WITH_UNIT(LENGTH_MEASURE(1.0E-006),#18,'','');
#18= (CONVERSION_BASED_UNIT('MILLIMETRE',#28)LENGTH_UNIT()NAMED_UNIT(#31));
#19= (NAMED_UNIT(#33)PLANE_ANGLE_UNIT()SI_UNIT($,.RADIAN.));
#20= (NAMED_UNIT(#33)SOLID_ANGLE_UNIT()SI_UNIT($,.STERADIAN.));
#22=PRODUCT('0127-05-00','0127-05-00','PART-0127-05-00-DESC',(#39));
#23=PRODUCT_DEFINITION('NONE','NONE',#40,#1);
#24=MANIFOLD_SOLID_BREP('0127-05-00',#41);
#25=AXIS2_PLACEMENT_3D('',#42,#43,#44);
#28=LENGTH_MEASURE_WITH_UNIT(LENGTH_MEASURE(1.0),#45);
#31=DIMENSIONAL_EXPONENTS(1.0,0.0,0.0,0.0,0.0,0.0,0.0);
#33=DIMENSIONAL_EXPONENTS(0.0,0.0,0.0,0.0,0.0,0.0,0.0);
#39=PRODUCT_CONTEXT('',#9,'mechanical');
#40=PRODUCT_DEFINITION_FORMATION_WITH_SPECIFIED_SOURCE(' ','NONE',#22,.NOT_KNOWN.);
#41=CLOSED_SHELL('',(#46,#47,#48,#49,#50,#51,#52,#53,#54,#55,#56,#57,#58,#59,#60,#61,#62,#63,#64,#65,#66,#67));
#42=CARTESIAN_POINT('',(0.0,0.0,0.0));
#43=DIRECTION('',(0.0,0.0,1.0));
#44=DIRECTION('',(1.0,0.0,0.0));
#45= (NAMED_UNIT(#31)LENGTH_UNIT()SI_UNIT(.MILLI.,.METRE.));
#46=ADVANCED_FACE('',(#69),#70,.T.);
#47=ADVANCED_FACE('',(#71),#72,.T.);
#48=ADVANCED_FACE('',(#73),#74,.T.);
#49=ADVANCED_FACE('',(#75),#76,.T.);
#50=ADVANCED_FACE('',(#77),#78,.T.);
#51=ADVANCED_FACE('',(#79),#80,.T.);
#52=ADVANCED_FACE('',(#81),#82,.T.);
#53=ADVANCED_FACE('',(#83),#84,.T.);
#54=ADVANCED_FACE('',(#85),#86,.F.);
#55=ADVANCED_FACE('',(#87),#88,.F.);
#56=ADVANCED_FACE('',(#89),#90,.T.);
#57=ADVANCED_FACE('',(#91),#92,.T.);
#58=ADVANCED_FACE('',(#93,#94),#95,.T.);
#59=ADVANCED_FACE('',(#96),#97,.T.);
#60=ADVANCED_FACE('',(#98),#99,.T.);
#61=ADVANCED_FACE('',(#100),#101,.T.);
#62=ADVANCED_FACE('',(#102),#103,.T.);
#63=ADVANCED_FACE('',(#104),#105,.T.);
#64=ADVANCED_FACE('',(#106),#107,.T.);
#65=ADVANCED_FACE('',(#108,#109),#110,.F.);
#66=ADVANCED_FACE('',(#111),#112,.F.);
#67=ADVANCED_FACE('',(#113),#114,.F.);
#69=FACE_OUTER_BOUND('',#115,.T.);
#70=TOROIDAL_SURFACE('',#116,2.2,0.05);
#71=FACE_OUTER_BOUND('',#117,.T.);
#72=TOROIDAL_SURFACE('',#118,2.2,0.05);
#73=FACE_OUTER_BOUND('',#119,.T.);
#74=TOROIDAL_SURFACE('',#120,2.2,0.05);
#75=FACE_OUTER_BOUND('',#121,.T.);
#76=TOROIDAL_SURFACE('',#122,2.2,0.05);
#77=FACE_OUTER_BOUND('',#123,.T.);
#78=TOROIDAL_SURFACE('',#124,1.375,0.2);
#79=FACE_OUTER_BOUND('',#125,.T.);
#80=TOROIDAL_SURFACE('',#126,1.375,0.2);
#81=FACE_OUTER_BOUND('',#127,.T.);
#82=CYLINDRICAL_SURFACE('',#128,1.575);
#83=FACE_OUTER_BOUND('',#129,.T.);
#84=CYLINDRICAL_SURFACE('',#130,1.575);
#85=FACE_OUTER_BOUND('',#131,.T.);
#86=CYLINDRICAL_SURFACE('',#132,1.4);
#87=FACE_OUTER_BOUND('',#133,.T.);
#88=CYLINDRICAL_SURFACE('',#134,1.4);
#89=FACE_OUTER_BOUND('',#135,.T.);
#90=TOROIDAL_SURFACE('',#136,1.875,0.475);
#91=FACE_OUTER_BOUND('',#137,.T.);
#92=TOROIDAL_SURFACE('',#138,1.875,0.475);
#93=FACE_OUTER_BOUND('',#139,.T.);
#94=FACE_BOUND('',#140,.T.);
#95=PLANE('',#141);
#96=FACE_OUTER_BOUND('',#142,.T.);
#97=TOROIDAL_SURFACE('',#143,2.2,0.05);
#98=FACE_OUTER_BOUND('',#144,.T.);
#99=TOROIDAL_SURFACE('',#145,2.2,0.05);
#100=FACE_OUTER_BOUND('',#146,.T.);
#101=CYLINDRICAL_SURFACE('',#147,2.25);
#102=FACE_OUTER_BOUND('',#148,.T.);
#103=CYLINDRICAL_SURFACE('',#149,2.25);
#104=FACE_OUTER_BOUND('',#150,.T.);
#105=TOROIDAL_SURFACE('',#151,2.2,0.05);
#106=FACE_OUTER_BOUND('',#152,.T.);
#107=TOROIDAL_SURFACE('',#153,2.2,0.05);
#108=FACE_OUTER_BOUND('',#154,.T.);
#109=FACE_BOUND('',#155,.T.);
#110=PLANE('',#156);
#111=FACE_OUTER_BOUND('',#157,.T.);
#112=TOROIDAL_SURFACE('',#158,1.875,0.3);
#113=FACE_OUTER_BOUND('',#159,.T.);
#114=TOROIDAL_SURFACE('',#160,1.875,0.3);
#115=EDGE_LOOP('',(#161,#162,#163,#164));
#116=AXIS2_PLACEMENT_3D('',#165,#166,#167);
#117=EDGE_LOOP('',(#168,#169,#170,#171));
#118=AXIS2_PLACEMENT_3D('',#172,#173,#174);
#119=EDGE_LOOP('',(#175,#176,#177,#178));
#120=AXIS2_PLACEMENT_3D('',#179,#180,#181);
#121=EDGE_LOOP('',(#182,#183,#184,#185));
#122=AXIS2_PLACEMENT_3D('',#186,#187,#188);
#123=EDGE_LOOP('',(#189,#190,#191,#192));
#124=AXIS2_PLACEMENT_3D('',#193,#194,#195);
#125=EDGE_LOOP('',(#196,#197,#198,#199));
#126=AXIS2_PLACEMENT_3D('',#200,#201,#202);
#127=EDGE_LOOP('',(#203,#204,#205,#206));
#128=AXIS2_PLACEMENT_3D('',#207,#208,#209);
#129=EDGE_LOOP('',(#210,#211,#212,#213));
#130=AXIS2_PLACEMENT_3D('',#214,#215,#216);
#131=EDGE_LOOP('',(#217,#218,#219,#220));
#132=AXIS2_PLACEMENT_3D('',#221,#222,#223);
#133=EDGE_LOOP('',(#224,#225,#226,#227));
#134=AXIS2_PLACEMENT_3D('',#228,#229,#230);
#135=EDGE_LOOP('',(#231,#232,#233,#234));
#136=AXIS2_PLACEMENT_3D('',#235,#236,#237);
#137=EDGE_LOOP('',(#238,#239,#240,#241));
#138=AXIS2_PLACEMENT_3D('',#242,#243,#244);
#139=EDGE_LOOP('',(#245,#246,#247,#248));
#140=EDGE_LOOP('',(#249,#250));
#141=AXIS2_PLACEMENT_3D('',#251,#252,#253);
#142=EDGE_LOOP('',(#254,#255,#256,#257));
#143=AXIS2_PLACEMENT_3D('',#258,#259,#260);
#144=EDGE_LOOP('',(#261,#262,#263,#264));
#145=AXIS2_PLACEMENT_3D('',#265,#266,#267);
#146=EDGE_LOOP('',(#268,#269,#270,#271,#272,#273));
#147=AXIS2_PLACEMENT_3D('',#274,#275,#276);
#148=EDGE_LOOP('',(#277,#278,#279,#280,#281,#282));
#149=AXIS2_PLACEMENT_3D('',#283,#284,#285);
#150=EDGE_LOOP('',(#286,#287,#288,#289));
#151=AXIS2_PLACEMENT_3D('',#290,#291,#292);
#152=EDGE_LOOP('',(#293,#294,#295,#296));
#153=AXIS2_PLACEMENT_3D('',#297,#298,#299);
#154=EDGE_LOOP('',(#300,#301,#302,#303));
#155=EDGE_LOOP('',(#304,#305));
#156=AXIS2_PLACEMENT_3D('',#306,#307,#308);
#157=EDGE_LOOP('',(#309,#310,#311,#312));
#158=AXIS2_PLACEMENT_3D('',#313,#314,#315);
#159=EDGE_LOOP('',(#316,#317,#318,#319));
#160=AXIS2_PLACEMENT_3D('',#320,#321,#322);
#161=ORIENTED_EDGE('',*,*,#323,.F.);
#162=ORIENTED_EDGE('',*,*,#324,.F.);
#163=ORIENTED_EDGE('',*,*,#325,.T.);
#164=ORIENTED_EDGE('',*,*,#326,.T.);
#165=CARTESIAN_POINT('',(-11.375,0.0,0.0));
#166=DIRECTION('',(-1.0,0.0,0.0));
#167=DIRECTION('',(0.0,0.999955666605839,0.00941620002291537));
#168=ORIENTED_EDGE('',*,*,#327,.F.);
#169=ORIENTED_EDGE('',*,*,#328,.F.);
#170=ORIENTED_EDGE('',*,*,#329,.T.);
#171=ORIENTED_EDGE('',*,*,#330,.T.);
#172=CARTESIAN_POINT('',(-11.375,0.0,0.0));
#173=DIRECTION('',(-1.0,-0.0,0.0));
#174=DIRECTION('',(0.0,-0.999955666605839,-0.00941620002291537));
#175=ORIENTED_EDGE('',*,*,#331,.F.);
#176=ORIENTED_EDGE('',*,*,#332,.F.);
#177=ORIENTED_EDGE('',*,*,#333,.T.);
#178=ORIENTED_EDGE('',*,*,#334,.T.);
#179=CARTESIAN_POINT('',(-11.45,0.0,0.0));
#180=DIRECTION('',(-1.0,0.0,0.0));
#181=DIRECTION('',(0.0,0.999959652247915,0.00898297702489213));
#182=ORIENTED_EDGE('',*,*,#335,.F.);
#183=ORIENTED_EDGE('',*,*,#336,.F.);
#184=ORIENTED_EDGE('',*,*,#337,.T.);
#185=ORIENTED_EDGE('',*,*,#338,.T.);
#186=CARTESIAN_POINT('',(-11.45,0.0,0.0));
#187=DIRECTION('',(-1.0,-0.0,0.0));
#188=DIRECTION('',(0.0,-0.999959652247915,-0.00898297702489213));
#189=ORIENTED_EDGE('',*,*,#339,.F.);
#190=ORIENTED_EDGE('',*,*,#340,.F.);
#191=ORIENTED_EDGE('',*,*,#341,.T.);
#192=ORIENTED_EDGE('',*,*,#342,.T.);
#193=CARTESIAN_POINT('',(-0.1984313474893,0.0,0.0));
#194=DIRECTION('',(-1.0,0.0,0.0));
#195=DIRECTION('',(0.0,0.999999981620022,0.000191728858546704));
#196=ORIENTED_EDGE('',*,*,#341,.F.);
#197=ORIENTED_EDGE('',*,*,#343,.F.);
#198=ORIENTED_EDGE('',*,*,#339,.T.);
#199=ORIENTED_EDGE('',*,*,#344,.T.);
#200=CARTESIAN_POINT('',(-0.1984313475083,0.0,0.0));
#201=DIRECTION('',(-1.0,-0.0,0.0));
#202=DIRECTION('',(0.0,-0.999999982433969,-0.000187435488467294));
#203=ORIENTED_EDGE('',*,*,#340,.T.);
#204=ORIENTED_EDGE('',*,*,#345,.T.);
#205=ORIENTED_EDGE('',*,*,#346,.F.);
#206=ORIENTED_EDGE('',*,*,#347,.F.);
#207=CARTESIAN_POINT('',(0.575,0.0,0.0));
#208=DIRECTION('',(1.0,-0.0,0.0));
#209=DIRECTION('',(0.0,1.0,0.0));
#210=ORIENTED_EDGE('',*,*,#348,.T.);
#211=ORIENTED_EDGE('',*,*,#345,.F.);
#212=ORIENTED_EDGE('',*,*,#343,.T.);
#213=ORIENTED_EDGE('',*,*,#347,.T.);
#214=CARTESIAN_POINT('',(0.575,0.0,0.0));
#215=DIRECTION('',(1.0,-0.0,0.0));
#216=DIRECTION('',(0.0,1.0,0.0));
#217=ORIENTED_EDGE('',*,*,#349,.T.);
#218=ORIENTED_EDGE('',*,*,#350,.T.);
#219=ORIENTED_EDGE('',*,*,#342,.F.);
#220=ORIENTED_EDGE('',*,*,#351,.F.);
#221=CARTESIAN_POINT('',(0.575,0.0,0.0));
#222=DIRECTION('',(1.0,-0.0,0.0));
#223=DIRECTION('',(0.0,1.0,0.0));
#224=ORIENTED_EDGE('',*,*,#344,.F.);
#225=ORIENTED_EDGE('',*,*,#350,.F.);
#226=ORIENTED_EDGE('',*,*,#352,.F.);
#227=ORIENTED_EDGE('',*,*,#351,.T.);
#228=CARTESIAN_POINT('',(0.575,0.0,0.0));
#229=DIRECTION('',(1.0,-0.0,0.0));
#230=DIRECTION('',(0.0,1.0,0.0));
#231=ORIENTED_EDGE('',*,*,#352,.T.);
#232=ORIENTED_EDGE('',*,*,#353,.F.);
#233=ORIENTED_EDGE('',*,*,#354,.F.);
#234=ORIENTED_EDGE('',*,*,#355,.T.);
#235=CARTESIAN_POINT('',(-11.025,0.0,0.0));
#236=DIRECTION('',(-1.0,0.0,0.0));
#237=DIRECTION('',(0.0,1.0,0.0));
#238=ORIENTED_EDGE('',*,*,#356,.T.);
#239=ORIENTED_EDGE('',*,*,#353,.T.);
#240=ORIENTED_EDGE('',*,*,#349,.F.);
#241=ORIENTED_EDGE('',*,*,#355,.F.);
#242=CARTESIAN_POINT('',(-11.025,0.0,0.0));
#243=DIRECTION('',(-1.0,0.0,0.0));
#244=DIRECTION('',(0.0,1.0,0.0));
#245=ORIENTED_EDGE('',*,*,#332,.T.);
#246=ORIENTED_EDGE('',*,*,#357,.T.);
#247=ORIENTED_EDGE('',*,*,#336,.T.);
#248=ORIENTED_EDGE('',*,*,#358,.T.);
#249=ORIENTED_EDGE('',*,*,#356,.F.);
#250=ORIENTED_EDGE('',*,*,#354,.T.);
#251=CARTESIAN_POINT('',(-11.5,0.0,0.0));
#252=DIRECTION('',(-1.0,0.0,0.0));
#253=DIRECTION('',(0.0,0.0,1.0));
#254=ORIENTED_EDGE('',*,*,#335,.T.);
#255=ORIENTED_EDGE('',*,*,#359,.T.);
#256=ORIENTED_EDGE('',*,*,#333,.F.);
#257=ORIENTED_EDGE('',*,*,#358,.F.);
#258=CARTESIAN_POINT('',(-11.45,0.0,0.0));
#259=DIRECTION('',(-1.0,-0.0,0.0));
#260=DIRECTION('',(0.0,-0.999959652247915,-0.00898297702489213));
#261=ORIENTED_EDGE('',*,*,#331,.T.);
#262=ORIENTED_EDGE('',*,*,#360,.T.);
#263=ORIENTED_EDGE('',*,*,#337,.F.);
#264=ORIENTED_EDGE('',*,*,#357,.F.);
#265=CARTESIAN_POINT('',(-11.45,0.0,0.0));
#266=DIRECTION('',(-1.0,0.0,0.0));
#267=DIRECTION('',(0.0,0.999959652247915,0.00898297702489213));
#268=ORIENTED_EDGE('',*,*,#361,.F.);
#269=ORIENTED_EDGE('',*,*,#324,.T.);
#270=ORIENTED_EDGE('',*,*,#362,.T.);
#271=ORIENTED_EDGE('',*,*,#363,.T.);
#272=ORIENTED_EDGE('',*,*,#360,.F.);
#273=ORIENTED_EDGE('',*,*,#334,.F.);
#274=CARTESIAN_POINT('',(0.575,0.0,0.0));
#275=DIRECTION('',(1.0,-0.0,0.0));
#276=DIRECTION('',(0.0,1.0,0.0));
#277=ORIENTED_EDGE('',*,*,#363,.F.);
#278=ORIENTED_EDGE('',*,*,#328,.T.);
#279=ORIENTED_EDGE('',*,*,#364,.T.);
#280=ORIENTED_EDGE('',*,*,#361,.T.);
#281=ORIENTED_EDGE('',*,*,#359,.F.);
#282=ORIENTED_EDGE('',*,*,#338,.F.);
#283=CARTESIAN_POINT('',(0.575,0.0,0.0));
#284=DIRECTION('',(1.0,-0.0,0.0));
#285=DIRECTION('',(0.0,1.0,0.0));
#286=ORIENTED_EDGE('',*,*,#327,.T.);
#287=ORIENTED_EDGE('',*,*,#365,.T.);
#288=ORIENTED_EDGE('',*,*,#325,.F.);
#289=ORIENTED_EDGE('',*,*,#364,.F.);
#290=CARTESIAN_POINT('',(-11.375,0.0,0.0));
#291=DIRECTION('',(-1.0,-0.0,0.0));
#292=DIRECTION('',(0.0,-0.999955666605839,-0.00941620002291537));
#293=ORIENTED_EDGE('',*,*,#323,.T.);
#294=ORIENTED_EDGE('',*,*,#366,.T.);
#295=ORIENTED_EDGE('',*,*,#329,.F.);
#296=ORIENTED_EDGE('',*,*,#362,.F.);
#297=CARTESIAN_POINT('',(-11.375,0.0,0.0));
#298=DIRECTION('',(-1.0,0.0,0.0));
#299=DIRECTION('',(0.0,0.999955666605839,0.00941620002291537));
#300=ORIENTED_EDGE('',*,*,#326,.F.);
#301=ORIENTED_EDGE('',*,*,#365,.F.);
#302=ORIENTED_EDGE('',*,*,#330,.F.);
#303=ORIENTED_EDGE('',*,*,#366,.F.);
#304=ORIENTED_EDGE('',*,*,#367,.F.);
#305=ORIENTED_EDGE('',*,*,#368,.T.);
#306=CARTESIAN_POINT('',(-11.325,0.0,0.0));
#307=DIRECTION('',(-1.0,0.0,0.0));
#308=DIRECTION('',(0.0,0.0,1.0));
#309=ORIENTED_EDGE('',*,*,#346,.T.);
#310=ORIENTED_EDGE('',*,*,#369,.T.);
#311=ORIENTED_EDGE('',*,*,#368,.F.);
#312=ORIENTED_EDGE('',*,*,#370,.F.);
#313=CARTESIAN_POINT('',(-11.025,0.0,0.0));
#314=DIRECTION('',(-1.0,0.0,0.0));
#315=DIRECTION('',(0.0,1.0,0.0));
#316=ORIENTED_EDGE('',*,*,#367,.T.);
#317=ORIENTED_EDGE('',*,*,#369,.F.);
#318=ORIENTED_EDGE('',*,*,#348,.F.);
#319=ORIENTED_EDGE('',*,*,#370,.T.);
#320=CARTESIAN_POINT('',(-11.025,0.0,0.0));
#321=DIRECTION('',(-1.0,0.0,0.0));
#322=DIRECTION('',(0.0,1.0,0.0));
#323=EDGE_CURVE('',#371,#372,#373,.T.);
#324=EDGE_CURVE('',#374,#371,#375,.T.);
#325=EDGE_CURVE('',#374,#376,#377,.T.);
#326=EDGE_CURVE('',#376,#372,#378,.T.);
#327=EDGE_CURVE('',#379,#380,#381,.T.);
#328=EDGE_CURVE('',#382,#379,#383,.T.);
#329=EDGE_CURVE('',#382,#384,#385,.T.);
#330=EDGE_CURVE('',#384,#380,#386,.T.);
#331=EDGE_CURVE('',#387,#388,#389,.T.);
#332=EDGE_CURVE('',#390,#387,#391,.T.);
#333=EDGE_CURVE('',#390,#392,#393,.T.);
#334=EDGE_CURVE('',#392,#388,#394,.T.);
#335=EDGE_CURVE('',#395,#396,#397,.T.);
#336=EDGE_CURVE('',#398,#395,#399,.T.);
#337=EDGE_CURVE('',#398,#400,#401,.T.);
#338=EDGE_CURVE('',#400,#396,#402,.T.);
#339=EDGE_CURVE('',#403,#404,#405,.T.);
#340=EDGE_CURVE('',#406,#403,#407,.T.);
#341=EDGE_CURVE('',#406,#408,#409,.T.);
#342=EDGE_CURVE('',#408,#404,#410,.T.);
#343=EDGE_CURVE('',#403,#406,#411,.T.);
#344=EDGE_CURVE('',#404,#408,#412,.T.);
#345=EDGE_CURVE('',#403,#413,#414,.T.);
#346=EDGE_CURVE('',#415,#413,#416,.T.);
#347=EDGE_CURVE('',#406,#415,#417,.T.);
#348=EDGE_CURVE('',#415,#413,#418,.T.);
#349=EDGE_CURVE('',#419,#420,#421,.T.);
#350=EDGE_CURVE('',#420,#404,#422,.T.);
#351=EDGE_CURVE('',#419,#408,#423,.T.);
#352=EDGE_CURVE('',#419,#420,#424,.T.);
#353=EDGE_CURVE('',#425,#420,#426,.T.);
#354=EDGE_CURVE('',#427,#425,#428,.T.);
#355=EDGE_CURVE('',#427,#419,#429,.T.);
#356=EDGE_CURVE('',#427,#425,#430,.T.);
#357=EDGE_CURVE('',#387,#398,#431,.T.);
#358=EDGE_CURVE('',#395,#390,#432,.T.);
#359=EDGE_CURVE('',#396,#392,#433,.T.);
#360=EDGE_CURVE('',#388,#400,#434,.T.);
#361=EDGE_CURVE('',#374,#392,#435,.T.);
#362=EDGE_CURVE('',#371,#382,#436,.T.);
#363=EDGE_CURVE('',#382,#400,#437,.T.);
#364=EDGE_CURVE('',#379,#374,#438,.T.);
#365=EDGE_CURVE('',#380,#376,#439,.T.);
#366=EDGE_CURVE('',#372,#384,#440,.T.);
#367=EDGE_CURVE('',#441,#442,#443,.T.);
#368=EDGE_CURVE('',#441,#442,#444,.T.);
#369=EDGE_CURVE('',#413,#442,#445,.T.);
#370=EDGE_CURVE('',#415,#441,#446,.T.);
#371=VERTEX_POINT('',#447);
#372=VERTEX_POINT('',#448);
#373=CIRCLE('',#449,0.05);
#374=VERTEX_POINT('',#450);
#375=CIRCLE('',#451,2.25);
#376=VERTEX_POINT('',#452);
#377=CIRCLE('',#453,0.05);
#378=CIRCLE('',#454,2.199999996214);
#379=VERTEX_POINT('',#455);
#380=VERTEX_POINT('',#456);
#381=CIRCLE('',#457,0.05);
#382=VERTEX_POINT('',#458);
#383=CIRCLE('',#459,2.25);
#384=VERTEX_POINT('',#460);
#385=CIRCLE('',#461,0.05);
#386=CIRCLE('',#462,2.199999996214);
#387=VERTEX_POINT('',#463);
#388=VERTEX_POINT('',#464);
#389=CIRCLE('',#465,0.05);
#390=VERTEX_POINT('',#466);
#391=CIRCLE('',#467,2.199999999082);
#392=VERTEX_POINT('',#468);
#393=CIRCLE('',#469,0.05);
#394=CIRCLE('',#470,2.25);
#395=VERTEX_POINT('',#471);
#396=VERTEX_POINT('',#472);
#397=CIRCLE('',#473,0.05);
#398=VERTEX_POINT('',#474);
#399=CIRCLE('',#475,2.199999999082);
#400=VERTEX_POINT('',#476);
#401=CIRCLE('',#477,0.05);
#402=CIRCLE('',#478,2.25);
#403=VERTEX_POINT('',#479);
#404=VERTEX_POINT('',#480);
#405=CIRCLE('',#481,0.2);
#406=VERTEX_POINT('',#482);
#407=CIRCLE('',#483,1.575);
#408=VERTEX_POINT('',#484);
#409=CIRCLE('',#485,0.2);
#410=CIRCLE('',#486,1.4);
#411=CIRCLE('',#487,1.575);
#412=CIRCLE('',#488,1.4);
#413=VERTEX_POINT('',#489);
#414=LINE('',#490,#491);
#415=VERTEX_POINT('',#492);
#416=CIRCLE('',#493,1.575);
#417=LINE('',#494,#495);
#418=CIRCLE('',#496,1.575);
#419=VERTEX_POINT('',#497);
#420=VERTEX_POINT('',#498);
#421=CIRCLE('',#499,1.4);
#422=LINE('',#500,#501);
#423=LINE('',#502,#503);
#424=CIRCLE('',#504,1.4);
#425=VERTEX_POINT('',#505);
#426=CIRCLE('',#506,0.475);
#427=VERTEX_POINT('',#507);
#428=CIRCLE('',#508,1.875);
#429=CIRCLE('',#509,0.475);
#430=CIRCLE('',#510,1.875);
#431=CIRCLE('',#511,2.199999999082);
#432=CIRCLE('',#512,2.199999999082);
#433=CIRCLE('',#513,2.25);
#434=CIRCLE('',#514,2.25);
#435=LINE('',#515,#516);
#436=CIRCLE('',#517,2.25);
#437=LINE('',#518,#519);
#438=CIRCLE('',#520,2.25);
#439=CIRCLE('',#521,2.199999996214);
#440=CIRCLE('',#522,2.199999996214);
#441=VERTEX_POINT('',#523);
#442=VERTEX_POINT('',#524);
#443=CIRCLE('',#525,1.875);
#444=CIRCLE('',#526,1.875);
#445=CIRCLE('',#527,0.3);
#446=CIRCLE('',#528,0.3);
#447=CARTESIAN_POINT('',(-11.375,-2.24990024986314,-0.0211864500515598));
#448=CARTESIAN_POINT('',(-11.325,-2.19990246274701,-0.0207156400147643));
#449=AXIS2_PLACEMENT_3D('',#529,#530,#531);
#450=CARTESIAN_POINT('',(-11.375,2.25,0.0));
#451=AXIS2_PLACEMENT_3D('',#532,#533,#534);
#452=CARTESIAN_POINT('',(-11.325,2.199999996214,0.0));
#453=AXIS2_PLACEMENT_3D('',#535,#536,#537);
#454=AXIS2_PLACEMENT_3D('',#538,#539,#540);
#455=CARTESIAN_POINT('',(-11.375,2.24990024986314,0.0211864500515598));
#456=CARTESIAN_POINT('',(-11.325,2.19990246274701,0.0207156400147643));
#457=AXIS2_PLACEMENT_3D('',#541,#542,#543);
#458=CARTESIAN_POINT('',(-11.375,-2.25,0.0));
#459=AXIS2_PLACEMENT_3D('',#544,#545,#546);
#460=CARTESIAN_POINT('',(-11.325,-2.199999996214,0.0));
#461=AXIS2_PLACEMENT_3D('',#547,#548,#549);
#462=AXIS2_PLACEMENT_3D('',#550,#551,#552);
#463=CARTESIAN_POINT('',(-11.5,-2.19991123402745,-0.0197625494465163));
#464=CARTESIAN_POINT('',(-11.45,-2.24990921755781,-0.0202116983060073));
#465=AXIS2_PLACEMENT_3D('',#553,#554,#555);
#466=CARTESIAN_POINT('',(-11.5,2.199999999082,0.0));
#467=AXIS2_PLACEMENT_3D('',#556,#557,#558);
#468=CARTESIAN_POINT('',(-11.45,2.25,0.0));
#469=AXIS2_PLACEMENT_3D('',#559,#560,#561);
#470=AXIS2_PLACEMENT_3D('',#562,#563,#564);
#471=CARTESIAN_POINT('',(-11.5,2.19991123402745,0.0197625494465163));
#472=CARTESIAN_POINT('',(-11.45,2.24990921755781,0.0202116983060073));
#473=AXIS2_PLACEMENT_3D('',#565,#566,#567);
#474=CARTESIAN_POINT('',(-11.5,-2.199999999082,0.0));
#475=AXIS2_PLACEMENT_3D('',#568,#569,#570);
#476=CARTESIAN_POINT('',(-11.45,-2.25,0.0));
#477=AXIS2_PLACEMENT_3D('',#571,#572,#573);
#478=AXIS2_PLACEMENT_3D('',#574,#575,#576);
#479=CARTESIAN_POINT('',(-0.1984313534443,-1.57499998552577,-0.00015098647610569));
#480=CARTESIAN_POINT('',(6.2477822915242E-010,-1.39999998716002,-0.000134210200982843));
#481=AXIS2_PLACEMENT_3D('',#577,#578,#579);
#482=CARTESIAN_POINT('',(-0.1984313534467,1.57499998616675,0.000147605447168091));
#483=AXIS2_PLACEMENT_3D('',#580,#581,#582);
#484=CARTESIAN_POINT('',(6.15261119829577E-010,1.39999998772978,0.000131204841927192));
#485=AXIS2_PLACEMENT_3D('',#583,#584,#585);
#486=AXIS2_PLACEMENT_3D('',#586,#587,#588);
#487=AXIS2_PLACEMENT_3D('',#589,#590,#591);
#488=AXIS2_PLACEMENT_3D('',#592,#593,#594);
#489=CARTESIAN_POINT('',(-11.025,-1.575,0.0));
#490=CARTESIAN_POINT('',(-0.1984313481204,-1.575,0.0));
#491=VECTOR('',#595,10.82656865188);
#492=CARTESIAN_POINT('',(-11.025,1.575,0.0));
#493=AXIS2_PLACEMENT_3D('',#596,#597,#598);
#494=CARTESIAN_POINT('',(-0.1984313481252,1.575,0.0));
#495=VECTOR('',#599,10.82656865187);
#496=AXIS2_PLACEMENT_3D('',#600,#601,#602);
#497=CARTESIAN_POINT('',(-11.025,1.4,0.0));
#498=CARTESIAN_POINT('',(-11.025,-1.4,0.0));
#499=AXIS2_PLACEMENT_3D('',#603,#604,#605);
#500=CARTESIAN_POINT('',(-11.025,-1.4,0.0));
#501=VECTOR('',#606,11.02500000041);
#502=CARTESIAN_POINT('',(-11.025,1.4,0.0));
#503=VECTOR('',#607,11.02500000041);
#504=AXIS2_PLACEMENT_3D('',#608,#609,#610);
#505=CARTESIAN_POINT('',(-11.5,-1.875,0.0));
#506=AXIS2_PLACEMENT_3D('',#611,#612,#613);
#507=CARTESIAN_POINT('',(-11.5,1.875,0.0));
#508=AXIS2_PLACEMENT_3D('',#614,#615,#616);
#509=AXIS2_PLACEMENT_3D('',#617,#618,#619);
#510=AXIS2_PLACEMENT_3D('',#620,#621,#622);
#511=AXIS2_PLACEMENT_3D('',#623,#624,#625);
#512=AXIS2_PLACEMENT_3D('',#626,#627,#628);
#513=AXIS2_PLACEMENT_3D('',#629,#630,#631);
#514=AXIS2_PLACEMENT_3D('',#632,#633,#634);
#515=CARTESIAN_POINT('',(-11.375,2.25,1.284971261339E-012));
#516=VECTOR('',#635,0.075);
#517=AXIS2_PLACEMENT_3D('',#636,#637,#638);
#518=CARTESIAN_POINT('',(-11.375,-2.25,-1.284719726435E-012));
#519=VECTOR('',#639,0.075);
#520=AXIS2_PLACEMENT_3D('',#640,#641,#642);
#521=AXIS2_PLACEMENT_3D('',#643,#644,#645);
#522=AXIS2_PLACEMENT_3D('',#646,#647,#648);
#523=CARTESIAN_POINT('',(-11.325,1.875,0.0));
#524=CARTESIAN_POINT('',(-11.325,-1.875,0.0));
#525=AXIS2_PLACEMENT_3D('',#649,#650,#651);
#526=AXIS2_PLACEMENT_3D('',#652,#653,#654);
#527=AXIS2_PLACEMENT_3D('',#655,#656,#657);
#528=AXIS2_PLACEMENT_3D('',#658,#659,#660);
#529=CARTESIAN_POINT('',(-11.375,-2.19990246653285,-0.0207156400504141));
#530=DIRECTION('',(0.0,-0.00941620002291549,0.999955666605839));
#531=DIRECTION('',(0.0,-0.999955666605839,-0.00941620002291549));
#532=CARTESIAN_POINT('',(-11.375,0.0,0.0));
#533=DIRECTION('',(-1.0,0.0,0.0));
#534=DIRECTION('',(0.0,1.0,0.0));
#535=CARTESIAN_POINT('',(-11.375,2.2,3.724407240946E-011));
#536=DIRECTION('',(0.0,1.692912129925E-011,-1.0));
#537=DIRECTION('',(0.0,1.0,1.692912129925E-011));
#538=CARTESIAN_POINT('',(-11.325,0.0,0.0));
#539=DIRECTION('',(-1.0,0.0,0.0));
#540=DIRECTION('',(0.0,1.0,0.0));
#541=CARTESIAN_POINT('',(-11.375,2.19990246653285,0.0207156400504141));
#542=DIRECTION('',(-0.0,0.00941620002291549,-0.999955666605839));
#543=DIRECTION('',(0.0,0.999955666605839,0.00941620002291549));
#544=CARTESIAN_POINT('',(-11.375,0.0,0.0));
#545=DIRECTION('',(-1.0,0.0,0.0));
#546=DIRECTION('',(0.0,-1.0,0.0));
#547=CARTESIAN_POINT('',(-11.375,-2.2,-3.724282340856E-011));
#548=DIRECTION('',(0.0,-1.692855577939E-011,1.0));
#549=DIRECTION('',(0.0,-1.0,-1.692855577939E-011));
#550=CARTESIAN_POINT('',(-11.325,0.0,0.0));
#551=DIRECTION('',(-1.0,0.0,0.0));
#552=DIRECTION('',(0.0,-1.0,0.0));
#553=CARTESIAN_POINT('',(-11.45,-2.19991123494541,-0.019762549454763));
#554=DIRECTION('',(0.0,-0.00898297702489225,0.999959652247915));
#555=DIRECTION('',(0.0,-0.999959652247915,-0.00898297702489226));
#556=CARTESIAN_POINT('',(-11.5,0.0,0.0));
#557=DIRECTION('',(-1.0,0.0,0.0));
#558=DIRECTION('',(0.0,1.0,0.0));
#559=CARTESIAN_POINT('',(-11.45,2.2,0.0));
#560=DIRECTION('',(0.0,0.0,-1.0));
#561=DIRECTION('',(-1.0,0.0,0.0));
#562=CARTESIAN_POINT('',(-11.45,0.0,0.0));
#563=DIRECTION('',(-1.0,0.0,0.0));
#564=DIRECTION('',(0.0,1.0,0.0));
#565=CARTESIAN_POINT('',(-11.45,2.19991123494541,0.019762549454763));
#566=DIRECTION('',(-0.0,0.00898297702489225,-0.999959652247915));
#567=DIRECTION('',(0.0,0.999959652247915,0.00898297702489226));
#568=CARTESIAN_POINT('',(-11.5,0.0,0.0));
#569=DIRECTION('',(-1.0,0.0,0.0));
#570=DIRECTION('',(0.0,-1.0,0.0));
#571=CARTESIAN_POINT('',(-11.45,-2.2,0.0));
#572=DIRECTION('',(0.0,0.0,1.0));
#573=DIRECTION('',(-1.0,0.0,0.0));
#574=CARTESIAN_POINT('',(-11.45,0.0,0.0));
#575=DIRECTION('',(-1.0,0.0,0.0));
#576=DIRECTION('',(0.0,-1.0,0.0));
#577=CARTESIAN_POINT('',(-0.1984313475083,-1.375,-3.059325796168E-014));
#578=DIRECTION('',(-1.88244830503539E-038,-2.22496717231E-014,1.0));
#579=DIRECTION('',(-4.112382517851E-009,-1.0,-2.22496717231E-014));
#580=CARTESIAN_POINT('',(-0.1984313587682,0.0,0.0));
#581=DIRECTION('',(-1.0,0.0,0.0));
#582=DIRECTION('',(0.0,1.0,0.0));
#583=CARTESIAN_POINT('',(-0.1984313474893,1.375,3.098292022247E-014));
#584=DIRECTION('',(-5.72178188953109E-039,2.253305506593E-014,-1.0));
#585=DIRECTION('',(-4.207553194746E-009,1.0,2.253305506593E-014));
#586=CARTESIAN_POINT('',(8.40537861535E-010,0.0,0.0));
#587=DIRECTION('',(-1.0,0.0,0.0));
#588=DIRECTION('',(0.0,1.0,0.0));
#589=CARTESIAN_POINT('',(-0.1984313587682,0.0,0.0));
#590=DIRECTION('',(-1.0,0.0,0.0));
#591=DIRECTION('',(0.0,-1.0,0.0));
#592=CARTESIAN_POINT('',(8.215036428894E-010,0.0,0.0));
#593=DIRECTION('',(-1.0,0.0,0.0));
#594=DIRECTION('',(0.0,-1.0,0.0));
#595=DIRECTION('',(-1.0,0.0,0.0));
#596=CARTESIAN_POINT('',(-11.025,0.0,0.0));
#597=DIRECTION('',(-1.0,0.0,0.0));
#598=DIRECTION('',(0.0,1.0,0.0));
#599=DIRECTION('',(-1.0,0.0,0.0));
#600=CARTESIAN_POINT('',(-11.025,0.0,0.0));
#601=DIRECTION('',(1.0,0.0,0.0));
#602=DIRECTION('',(0.0,1.0,0.0));
#603=CARTESIAN_POINT('',(-11.025,0.0,0.0));
#604=DIRECTION('',(-1.0,0.0,0.0));
#605=DIRECTION('',(0.0,1.0,0.0));
#606=DIRECTION('',(1.0,-4.674134598975E-012,0.0));
#607=DIRECTION('',(1.0,4.673933197972E-012,0.0));
#608=CARTESIAN_POINT('',(-11.025,0.0,0.0));
#609=DIRECTION('',(1.0,0.0,0.0));
#610=DIRECTION('',(0.0,1.0,0.0));
#611=CARTESIAN_POINT('',(-11.025,-1.875,0.0));
#612=DIRECTION('',(0.0,0.0,-1.0));
#613=DIRECTION('',(-1.0,0.0,0.0));
#614=CARTESIAN_POINT('',(-11.5,0.0,0.0));
#615=DIRECTION('',(1.0,0.0,0.0));
#616=DIRECTION('',(0.0,1.0,0.0));
#617=CARTESIAN_POINT('',(-11.025,1.875,0.0));
#618=DIRECTION('',(0.0,0.0,1.0));
#619=DIRECTION('',(-1.0,0.0,0.0));
#620=CARTESIAN_POINT('',(-11.5,0.0,0.0));
#621=DIRECTION('',(-1.0,0.0,0.0));
#622=DIRECTION('',(0.0,1.0,0.0));
#623=CARTESIAN_POINT('',(-11.5,0.0,0.0));
#624=DIRECTION('',(-1.0,0.0,0.0));
#625=DIRECTION('',(0.0,1.0,0.0));
#626=CARTESIAN_POINT('',(-11.5,0.0,0.0));
#627=DIRECTION('',(-1.0,0.0,0.0));
#628=DIRECTION('',(0.0,-1.0,0.0));
#629=CARTESIAN_POINT('',(-11.45,0.0,0.0));
#630=DIRECTION('',(-1.0,0.0,0.0));
#631=DIRECTION('',(0.0,-1.0,0.0));
#632=CARTESIAN_POINT('',(-11.45,0.0,0.0));
#633=DIRECTION('',(-1.0,0.0,0.0));
#634=DIRECTION('',(0.0,1.0,0.0));
#635=DIRECTION('',(-1.0,0.0,4.598636286583E-012));
#636=CARTESIAN_POINT('',(-11.375,0.0,0.0));
#637=DIRECTION('',(-1.0,0.0,0.0));
#638=DIRECTION('',(0.0,1.0,0.0));
#639=DIRECTION('',(-1.0,0.0,-4.605563615664E-012));
#640=CARTESIAN_POINT('',(-11.375,0.0,0.0));
#641=DIRECTION('',(-1.0,0.0,0.0));
#642=DIRECTION('',(0.0,-1.0,0.0));
#643=CARTESIAN_POINT('',(-11.325,0.0,0.0));
#644=DIRECTION('',(-1.0,0.0,0.0));
#645=DIRECTION('',(0.0,-1.0,0.0));
#646=CARTESIAN_POINT('',(-11.325,0.0,0.0));
#647=DIRECTION('',(-1.0,0.0,0.0));
#648=DIRECTION('',(0.0,1.0,0.0));
#649=CARTESIAN_POINT('',(-11.325,0.0,0.0));
#650=DIRECTION('',(1.0,0.0,0.0));
#651=DIRECTION('',(0.0,1.0,0.0));
#652=CARTESIAN_POINT('',(-11.325,0.0,0.0));
#653=DIRECTION('',(-1.0,0.0,0.0));
#654=DIRECTION('',(0.0,1.0,0.0));
#655=CARTESIAN_POINT('',(-11.025,-1.875,0.0));
#656=DIRECTION('',(0.0,-0.0,1.0));
#657=DIRECTION('',(0.0,1.0,0.0));
#658=CARTESIAN_POINT('',(-11.025,1.875,0.0));
#659=DIRECTION('',(0.0,0.0,-1.0));
#660=DIRECTION('',(0.0,-1.0,0.0));
ENDSEC;
END-ISO-10303-21;
